  0
SECTION
  2
HEADER
  9
$ACADVER
  1
AC1015
  9
$ACADMAINTVER
 70
     6
  9
$DWGCODEPAGE
  3
ANSI_1254
  9
$INSBASE
 10
0.0
 20
0.0
 30
0.0
  9
$EXTMIN
 10
0.0
 20
0.0
 30
0.0
  9
$EXTMAX
 10
279.4
 20
215.9
 30
0.0
  9
$LIMMIN
 10
0.0
 20
0.0
  9
$LIMMAX
 10
279.4
 20
215.9
  9
$ORTHOMODE
 70
     0
  9
$REGENMODE
 70
     1
  9
$FILLMODE
 70
     1
  9
$QTEXTMODE
 70
     0
  9
$MIRRTEXT
 70
     1
  9
$LTSCALE
 40
1.0
  9
$ATTMODE
 70
     1
  9
$TEXTSIZE
 40
3.5
  9
$TRACEWID
 40
1.0
  9
$TEXTSTYLE
  7
Standard
  9
$CLAYER
  8
0
  9
$CELTYPE
  6
ByLayer
  9
$CECOLOR
 62
   256
  9
$CELTSCALE
 40
1.0
  9
$DISPSILH
 70
     0
  9
$DIMSCALE
 40
1.0
  9
$DIMASZ
 40
3.5
  9
$DIMEXO
 40
1.0
  9
$DIMDLI
 40
3.75
  9
$DIMRND
 40
0.0
  9
$DIMDLE
 40
0.0
  9
$DIMEXE
 40
1.0
  9
$DIMTP
 40
0.0
  9
$DIMTM
 40
0.0
  9
$DIMTXT
 40
3.5
  9
$DIMCEN
 40
2.5
  9
$DIMTSZ
 40
0.0
  9
$DIMTOL
 70
     0
  9
$DIMLIM
 70
     0
  9
$DIMTIH
 70
     1
  9
$DIMTOH
 70
     1
  9
$DIMSE1
 70
     0
  9
$DIMSE2
 70
     0
  9
$DIMTAD
 70
     1
  9
$DIMZIN
 70
     0
  9
$DIMBLK
  1

  9
$DIMASO
 70
     1
  9
$DIMSHO
 70
     1
  9
$DIMPOST
  1

  9
$DIMAPOST
  1

  9
$DIMALT
 70
     0
  9
$DIMALTD
 70
     3
  9
$DIMALTF
 40
0.0393700787
  9
$DIMLFAC
 40
1.0
  9
$DIMTOFL
 70
     1
  9
$DIMTVP
 40
0.0
  9
$DIMTIX
 70
     0
  9
$DIMSOXD
 70
     0
  9
$DIMSAH
 70
     0
  9
$DIMBLK1
  1

  9
$DIMBLK2
  1

  9
$DIMSTYLE
  2
ISO-25
  9
$DIMCLRD
 70
     0
  9
$DIMCLRE
 70
     0
  9
$DIMCLRT
 70
     0
  9
$DIMTFAC
 40
1.0
  9
$DIMGAP
 40
1.524
  9
$DIMJUST
 70
     0
  9
$DIMSD1
 70
     0
  9
$DIMSD2
 70
     0
  9
$DIMTOLJ
 70
     0
  9
$DIMTZIN
 70
     0
  9
$DIMALTZ
 70
     0
  9
$DIMALTTZ
 70
     0
  9
$DIMUPT
 70
     0
  9
$DIMDEC
 70
     2
  9
$DIMTDEC
 70
     2
  9
$DIMALTU
 70
     2
  9
$DIMALTTD
 70
     3
  9
$DIMTXSTY
  7
Standard
  9
$DIMAUNIT
 70
     0
  9
$DIMADEC
 70
     2
  9
$DIMALTRND
 40
0.0
  9
$DIMAZIN
 70
     0
  9
$DIMDSEP
 70
    44
  9
$DIMATFIT
 70
     3
  9
$DIMFRAC
 70
     0
  9
$DIMLDRBLK
  1

  9
$DIMLUNIT
 70
     2
  9
$DIMLWD
 70
    -2
  9
$DIMLWE
 70
    -2
  9
$DIMTMOVE
 70
     0
  9
$LUNITS
 70
     2
  9
$LUPREC
 70
     2
  9
$SKETCHINC
 40
1.0
  9
$FILLETRAD
 40
10.0
  9
$AUNITS
 70
     0
  9
$AUPREC
 70
     2
  9
$MENU
  1
.
  9
$ELEVATION
 40
0.0
  9
$PELEVATION
 40
0.0
  9
$THICKNESS
 40
0.0
  9
$LIMCHECK
 70
     0
  9
$CHAMFERA
 40
0.0
  9
$CHAMFERB
 40
0.0
  9
$CHAMFERC
 40
0.0
  9
$CHAMFERD
 40
0.0
  9
$SKPOLY
 70
     0
  9
$TDCREATE
 40
2459741.59104412
  9
$TDUCREATE
 40
2459741.46604412
  9
$TDUPDATE
 40
2459741.591046447
  9
$TDUUPDATE
 40
2459741.466046447
  9
$TDINDWG
 40
0.0000000116
  9
$TDUSRTIMER
 40
0.0000000116
  9
$USRTIMER
 70
     1
  9
$ANGBASE
 50
0.0
  9
$ANGDIR
 70
     0
  9
$PDMODE
 70
     0
  9
$PDSIZE
 40
-1.0
  9
$PLINEWID
 40
0.0
  9
$SPLFRAME
 70
     0
  9
$SPLINETYPE
 70
     6
  9
$SPLINESEGS
 70
     8
  9
$HANDSEED
  5
1BC
  9
$SURFTAB1
 70
     6
  9
$SURFTAB2
 70
     6
  9
$SURFTYPE
 70
     6
  9
$SURFU
 70
     6
  9
$SURFV
 70
     6
  9
$UCSBASE
  2

  9
$UCSNAME
  2

  9
$UCSORG
 10
0.0
 20
0.0
 30
0.0
  9
$UCSXDIR
 10
1.0
 20
0.0
 30
0.0
  9
$UCSYDIR
 10
0.0
 20
1.0
 30
0.0
  9
$UCSORTHOREF
  2

  9
$UCSORTHOVIEW
 70
     0
  9
$UCSORGTOP
 10
0.0
 20
0.0
 30
0.0
  9
$UCSORGBOTTOM
 10
0.0
 20
0.0
 30
0.0
  9
$UCSORGLEFT
 10
0.0
 20
0.0
 30
0.0
  9
$UCSORGRIGHT
 10
0.0
 20
0.0
 30
0.0
  9
$UCSORGFRONT
 10
0.0
 20
0.0
 30
0.0
  9
$UCSORGBACK
 10
0.0
 20
0.0
 30
0.0
  9
$PUCSBASE
  2

  9
$PUCSNAME
  2

  9
$PUCSORG
 10
0.0
 20
0.0
 30
0.0
  9
$PUCSXDIR
 10
1.0
 20
0.0
 30
0.0
  9
$PUCSYDIR
 10
0.0
 20
1.0
 30
0.0
  9
$PUCSORTHOREF
  2

  9
$PUCSORTHOVIEW
 70
     0
  9
$PUCSORGTOP
 10
0.0
 20
0.0
 30
0.0
  9
$PUCSORGBOTTOM
 10
0.0
 20
0.0
 30
0.0
  9
$PUCSORGLEFT
 10
0.0
 20
0.0
 30
0.0
  9
$PUCSORGRIGHT
 10
0.0
 20
0.0
 30
0.0
  9
$PUCSORGFRONT
 10
0.0
 20
0.0
 30
0.0
  9
$PUCSORGBACK
 10
0.0
 20
0.0
 30
0.0
  9
$USERI1
 70
     0
  9
$USERI2
 70
     0
  9
$USERI3
 70
     0
  9
$USERI4
 70
     0
  9
$USERI5
 70
     0
  9
$USERR1
 40
0.0
  9
$USERR2
 40
0.0
  9
$USERR3
 40
0.0
  9
$USERR4
 40
0.0
  9
$USERR5
 40
0.0
  9
$WORLDVIEW
 70
     1
  9
$SHADEDGE
 70
     3
  9
$SHADEDIF
 70
    70
  9
$TILEMODE
 70
     1
  9
$MAXACTVP
 70
    64
  9
$PINSBASE
 10
0.0
 20
0.0
 30
0.0
  9
$PLIMCHECK
 70
     0
  9
$PEXTMIN
 10
1.0000000000E+20
 20
1.0000000000E+20
 30
1.0000000000E+20
  9
$PEXTMAX
 10
-1.0000000000E+20
 20
-1.0000000000E+20
 30
-1.0000000000E+20
  9
$PLIMMIN
 10
0.0
 20
0.0
  9
$PLIMMAX
 10
420.0
 20
297.0
  9
$UNITMODE
 70
     0
  9
$VISRETAIN
 70
     1
  9
$PLINEGEN
 70
     0
  9
$PSLTSCALE
 70
     1
  9
$TREEDEPTH
 70
  3020
  9
$CMLSTYLE
  2
Standard
  9
$CMLJUST
 70
     0
  9
$CMLSCALE
 40
20.0
  9
$PROXYGRAPHICS
 70
     1
  9
$MEASUREMENT
 70
     1
  9
$CELWEIGHT
370
    -1
  9
$ENDCAPS
280
     0
  9
$JOINSTYLE
280
     0
  9
$LWDISPLAY
290
     1
  9
$INSUNITS
 70
     4
  9
$HYPERLINKBASE
  1

  9
$STYLESHEET
  1

  9
$XEDIT
290
     1
  9
$CEPSNTYPE
380
     0
  9
$PSTYLEMODE
290
     1
  9
$FINGERPRINTGUID
  2
{23ebdf44-c38e-4343-a04e-b241eecb076d}
  9
$VERSIONGUID
  2
{FAEB1C32-E019-11D5-929B-00C0DF256EC4}
  9
$EXTNAMES
290
     1
  9
$PSVPSCALE
 40
0.0
  9
$OLESTARTUP
290
     0
  0
ENDSEC
  0
SECTION
  2
CLASSES
  0
CLASS
  1
ACDBDICTIONARYWDFLT
  2
AcDbDictionaryWithDefault
  3
ObjectDBX Classes
 90
        0
280
     0
281
     0
  0
CLASS
  1
VISUALSTYLE
  2
AcDbVisualStyle
  3
ObjectDBX Classes
 90
     4095
280
     0
281
     0
  0
CLASS
  1
MATERIAL
  2
AcDbMaterial
  3
ObjectDBX Classes
 90
     1153
280
     0
281
     0
  0
CLASS
  1
SCALE
  2
AcDbScale
  3
ObjectDBX Classes
 90
     1153
280
     0
281
     0
  0
CLASS
  1
TABLESTYLE
  2
AcDbTableStyle
  3
ObjectDBX Classes
 90
     4095
280
     0
281
     0
  0
CLASS
  1
MLEADERSTYLE
  2
AcDbMLeaderStyle
  3
ACDB_MLEADERSTYLE_CLASS
 90
     4095
280
     0
281
     0
  0
CLASS
  1
SUN
  2
AcDbSun
  3
SCENEOE
 90
     1153
280
     0
281
     0
  0
CLASS
  1
ACDBPLACEHOLDER
  2
AcDbPlaceHolder
  3
ObjectDBX Classes
 90
        0
280
     0
281
     0
  0
CLASS
  1
LAYOUT
  2
AcDbLayout
  3
ObjectDBX Classes
 90
        0
280
     0
281
     0
  0
ENDSEC
  0
SECTION
  2
TABLES
  0
TABLE
  2
VPORT
  5
8
330
0
100
AcDbSymbolTable
 70
     1
  0
VPORT
  5
29
330
8
100
AcDbSymbolTableRecord
100
AcDbViewportTableRecord
  2
*Active
 70
     0
 10
0.0
 20
0.0
 11
1.0
 21
1.0
 12
139.7
 22
107.95
 13
0.0
 23
0.0
 14
10.0
 24
10.0
 15
10.0
 25
10.0
 16
0.0
 26
0.0
 36
1.0
 17
0.0
 27
0.0
 37
0.0
 40
215.9
 41
1.2941176471
 42
50.0
 43
0.0
 44
0.0
 50
0.0
 51
0.0
 71
     0
 72
  2000
 73
     1
 74
     3
 75
     0
 76
     0
 77
     0
 78
     0
281
     0
 65
     1
110
0.0
120
0.0
130
0.0
111
1.0
121
0.0
131
0.0
112
0.0
122
1.0
132
0.0
 79
     0
146
0.0
  0
ENDTAB
  0
TABLE
  2
LTYPE
  5
5
330
0
100
AcDbSymbolTable
 70
     6
  0
LTYPE
  5
14
330
5
100
AcDbSymbolTableRecord
100
AcDbLinetypeTableRecord
  2
ByBlock
 70
     0
  3

 72
    65
 73
     0
 40
0.0
  0
LTYPE
  5
15
330
5
100
AcDbSymbolTableRecord
100
AcDbLinetypeTableRecord
  2
ByLayer
 70
     0
  3

 72
    65
 73
     0
 40
0.0
  0
LTYPE
  5
16
330
5
100
AcDbSymbolTableRecord
100
AcDbLinetypeTableRecord
  2
Continuous
 70
     0
  3
Solid line
 72
    65
 73
     0
 40
0.0
  0
LTYPE
  5
6E
330
5
100
AcDbSymbolTableRecord
100
AcDbLinetypeTableRecord
  2
HIDDEN
 70
     0
  3
Hidden __ __ __ __ __ __ __ __ __ __ __ __ __ __
 72
    65
 73
     2
 40
1.905
 49
1.27
 74
     0
 49
-0.635
 74
     0
  0
LTYPE
  5
6F
330
5
100
AcDbSymbolTableRecord
100
AcDbLinetypeTableRecord
  2
PHANTOM
 70
     0
  3
Phantom ______  __  __  ______  __  __  ______
 72
    65
 73
     6
 40
12.7
 49
6.35
 74
     0
 49
-1.27
 74
     0
 49
1.27
 74
     0
 49
-1.27
 74
     0
 49
1.27
 74
     0
 49
-1.27
 74
     0
  0
LTYPE
  5
70
330
5
100
AcDbSymbolTableRecord
100
AcDbLinetypeTableRecord
  2
CENTER
 70
     0
  3
Center ____ _ ____ _ ____ _ ____ _ ____ _ ____
 72
    65
 73
     4
 40
10.16
 49
6.35
 74
     0
 49
-1.27
 74
     0
 49
1.27
 74
     0
 49
-1.27
 74
     0
  0
LTYPE
  5
71
330
5
100
AcDbSymbolTableRecord
100
AcDbLinetypeTableRecord
  2
CENTERX2
 70
     0
  3
Center (2x) ________  __  ________  __  _____
 72
    65
 73
     4
 40
20.32
 49
12.7
 74
     0
 49
-2.54
 74
     0
 49
2.54
 74
     0
 49
-2.54
 74
     0
  0
LTYPE
  5
72
330
5
100
AcDbSymbolTableRecord
100
AcDbLinetypeTableRecord
  2
DOT2
 70
     0
  3
Dot (.5x) ........................................
 72
    65
 73
     2
 40
0.635
 49
0.0
 74
     0
 49
-0.635
 74
     0
  0
ENDTAB
  0
TABLE
  2
LAYER
  5
2
330
0
100
AcDbSymbolTable
 70
    17
  0
LAYER
  5
10
330
2
100
AcDbSymbolTableRecord
100
AcDbLayerTableRecord
  2
0
 70
     0
 62
     7
  6
Continuous
370
    -3
390
F
  0
LAYER
  5
73
330
2
100
AcDbSymbolTableRecord
100
AcDbLayerTableRecord
  2
FORMAT
 70
     0
 62
     7
  6
Continuous
370
    -3
390
F
  0
LAYER
  5
74
330
2
100
AcDbSymbolTableRecord
100
AcDbLayerTableRecord
  2
YARDIMCI_GEOMETRI
 70
     0
 62
    -6
  6
Continuous
290
     0
370
    -3
390
F
  0
LAYER
  5
75
330
2
100
AcDbSymbolTableRecord
100
AcDbLayerTableRecord
  2
SAYFA_CERCEVESI
 70
     0
 62
     7
  6
Continuous
370
    25
390
F
  0
LAYER
  5
76
330
2
100
AcDbSymbolTableRecord
100
AcDbLayerTableRecord
  2
ANTET
 70
     0
 62
     7
  6
Continuous
370
    -3
390
F
  0
LAYER
  5
77
330
2
100
AcDbSymbolTableRecord
100
AcDbLayerTableRecord
  2
OLCU
 70
     0
 62
   150
  6
Continuous
370
    -3
390
F
  0
LAYER
  5
78
330
2
100
AcDbSymbolTableRecord
100
AcDbLayerTableRecord
  2
METIN
 70
     0
 62
    96
  6
Continuous
370
    -3
390
F
  0
LAYER
  5
79
330
2
100
AcDbSymbolTableRecord
100
AcDbLayerTableRecord
  2
BALON
 70
     0
 62
     5
  6
Continuous
370
    -3
390
F
  0
LAYER
  5
7A
330
2
100
AcDbSymbolTableRecord
100
AcDbLayerTableRecord
  2
VURGU
 70
     0
 62
     7
  6
Continuous
370
    -3
390
F
  0
LAYER
  5
7B
330
2
100
AcDbSymbolTableRecord
100
AcDbLayerTableRecord
  2
SILIK
 70
     0
 62
     7
  6
Continuous
370
    -3
390
F
  0
LAYER
  5
7C
330
2
100
AcDbSymbolTableRecord
100
AcDbLayerTableRecord
  2
MODEL
 70
     0
 62
     7
  6
Continuous
370
    -3
390
F
  0
LAYER
  5
7D
330
2
100
AcDbSymbolTableRecord
100
AcDbLayerTableRecord
  2
DETAYLANDıRMA
 70
     0
 62
   190
  6
Continuous
370
    -3
390
F
  0
LAYER
  5
7E
330
2
100
AcDbSymbolTableRecord
100
AcDbLayerTableRecord
  2
TOLERANS
 70
     0
 62
   230
  6
Continuous
370
    -3
390
F
  0
LAYER
  5
7F
330
2
100
AcDbSymbolTableRecord
100
AcDbLayerTableRecord
  2
MERKEZ_CIZGILERI
 70
     0
 62
    30
  6
Continuous
370
    -3
390
F
  0
LAYER
  5
80
330
2
100
AcDbSymbolTableRecord
100
AcDbLayerTableRecord
  2
KESIT-DETAY_CIZGILERI
 70
     0
 62
     7
  6
Continuous
370
    -3
390
F
  0
LAYER
  5
81
330
2
100
AcDbSymbolTableRecord
100
AcDbLayerTableRecord
  2
\U+041E\U+0421\U+0415\U+0412\U+042B\U+0415
 70
     0
 62
     7
  6
Continuous
370
    -3
390
F
  0
LAYER
  5
82
330
2
100
AcDbSymbolTableRecord
100
AcDbLayerTableRecord
  2
\U+0412\U+041E\U+0414\U+042F\U+041D\U+042B\U+0415_\U+0417\U+041D\U+0410\U+041A\U+0418
 70
     0
 62
    11
  6
Continuous
370
    -3
390
F
  0
ENDTAB
  0
TABLE
  2
STYLE
  5
3
330
0
100
AcDbSymbolTable
 70
     1
  0
STYLE
  5
11
330
3
100
AcDbSymbolTableRecord
100
AcDbTextStyleTableRecord
  2
Standard
 70
     0
 40
0.0
 41
1.0
 50
0.0
 71
     0
 42
3.5
  3
txt
  4

  0
ENDTAB
  0
TABLE
  2
VIEW
  5
6
330
0
100
AcDbSymbolTable
 70
     0
  0
ENDTAB
  0
TABLE
  2
UCS
  5
7
330
0
100
AcDbSymbolTable
 70
     0
  0
ENDTAB
  0
TABLE
  2
APPID
  5
9
330
0
100
AcDbSymbolTable
 70
     1
  0
APPID
  5
12
330
9
100
AcDbSymbolTableRecord
100
AcDbRegAppTableRecord
  2
ACAD
 70
     0
  0
ENDTAB
  0
TABLE
  2
DIMSTYLE
  5
A
330
0
100
AcDbSymbolTable
 70
     1
100
AcDbDimStyleTable
  0
DIMSTYLE
105
27
330
A
100
AcDbSymbolTableRecord
100
AcDbDimStyleTableRecord
  2
ISO-25
 70
     0
 41
2.5
 42
0.625
 43
3.75
 44
1.25
 73
     0
 74
     0
 77
     1
 78
     8
140
2.5
141
2.5
143
0.0393700787
147
0.625
171
     3
172
     1
178
     0
271
     2
272
     2
274
     3
278
    44
283
     0
284
     8
340
11
  0
ENDTAB
  0
TABLE
  2
BLOCK_RECORD
  5
1
330
0
100
AcDbSymbolTable
 70
    14
  0
BLOCK_RECORD
  5
1F
330
1
100
AcDbSymbolTableRecord
100
AcDbBlockTableRecord
  2
*Model_Space
340
22
  0
BLOCK_RECORD
  5
1B
330
1
100
AcDbSymbolTableRecord
100
AcDbBlockTableRecord
  2
*Paper_Space
340
1E
  0
BLOCK_RECORD
  5
23
330
1
100
AcDbSymbolTableRecord
100
AcDbBlockTableRecord
  2
*Paper_Space0
340
26
  0
BLOCK_RECORD
  5
9F
330
1
100
AcDbSymbolTableRecord
100
AcDbBlockTableRecord
  2
SW_CENTERMARKSYMBOL_0
340
0
102
{BLKREFS
331
AA
102
}
  0
BLOCK_RECORD
  5
AB
330
1
100
AcDbSymbolTableRecord
100
AcDbBlockTableRecord
  2
SW_CENTERMARKSYMBOL_1
340
0
102
{BLKREFS
331
B6
102
}
  0
BLOCK_RECORD
  5
B7
330
1
100
AcDbSymbolTableRecord
100
AcDbBlockTableRecord
  2
SW_CENTERMARKSYMBOL_2
340
0
102
{BLKREFS
331
C2
102
}
  0
BLOCK_RECORD
  5
C3
330
1
100
AcDbSymbolTableRecord
100
AcDbBlockTableRecord
  2
SW_CENTERMARKSYMBOL_3
340
0
102
{BLKREFS
331
CE
102
}
  0
BLOCK_RECORD
  5
CF
330
1
100
AcDbSymbolTableRecord
100
AcDbBlockTableRecord
  2
SW_CENTERMARKSYMBOL_4
340
0
102
{BLKREFS
331
DA
102
}
  0
BLOCK_RECORD
  5
DB
330
1
100
AcDbSymbolTableRecord
100
AcDbBlockTableRecord
  2
SW_CENTERMARKSYMBOL_5
340
0
102
{BLKREFS
331
E6
102
}
  0
BLOCK_RECORD
  5
E7
330
1
100
AcDbSymbolTableRecord
100
AcDbBlockTableRecord
  2
SW_CENTERMARKSYMBOL_6
340
0
102
{BLKREFS
331
F2
102
}
  0
BLOCK_RECORD
  5
F3
330
1
100
AcDbSymbolTableRecord
100
AcDbBlockTableRecord
  2
SW_CENTERMARKSYMBOL_7
340
0
102
{BLKREFS
331
FE
102
}
  0
BLOCK_RECORD
  5
FF
330
1
100
AcDbSymbolTableRecord
100
AcDbBlockTableRecord
  2
SW_CENTERMARKSYMBOL_8
340
0
102
{BLKREFS
331
10A
102
}
  0
BLOCK_RECORD
  5
10B
330
1
100
AcDbSymbolTableRecord
100
AcDbBlockTableRecord
  2
SW_CENTERMARKSYMBOL_9
340
0
102
{BLKREFS
331
116
102
}
  0
BLOCK_RECORD
  5
117
330
1
100
AcDbSymbolTableRecord
100
AcDbBlockTableRecord
  2
SW_CENTERMARKSYMBOL_10
340
0
102
{BLKREFS
331
122
102
}
  0
BLOCK_RECORD
  5
123
330
1
100
AcDbSymbolTableRecord
100
AcDbBlockTableRecord
  2
SW_CENTERMARKSYMBOL_11
340
0
102
{BLKREFS
331
12E
102
}
  0
BLOCK_RECORD
  5
12F
330
1
100
AcDbSymbolTableRecord
100
AcDbBlockTableRecord
  2
SW_CENTERMARKSYMBOL_12
340
0
102
{BLKREFS
331
13A
102
}
  0
ENDTAB
  0
ENDSEC
  0
SECTION
  2
BLOCKS
  0
BLOCK
  5
20
330
1F
100
AcDbEntity
  8
0
100
AcDbBlockBegin
  2
*Model_Space
 70
     0
 10
0.0
 20
0.0
 30
0.0
  3
*Model_Space
  1

  0
ENDBLK
  5
21
330
1F
100
AcDbEntity
  8
0
100
AcDbBlockEnd
  0
BLOCK
  5
1C
330
1B
100
AcDbEntity
 67
     1
  8
0
100
AcDbBlockBegin
  2
*Paper_Space
 70
     0
 10
0.0
 20
0.0
 30
0.0
  3
*Paper_Space
  1

  0
ENDBLK
  5
1D
330
1B
100
AcDbEntity
 67
     1
  8
0
100
AcDbBlockEnd
  0
BLOCK
  5
24
330
23
100
AcDbEntity
  8
0
100
AcDbBlockBegin
  2
*Paper_Space0
 70
     0
 10
0.0
 20
0.0
 30
0.0
  3
*Paper_Space0
  1

  0
ENDBLK
  5
25
330
23
100
AcDbEntity
  8
0
100
AcDbBlockEnd
  0
BLOCK
  5
A0
330
9F
100
AcDbEntity
  8
0
100
AcDbBlockBegin
  2
SW_CENTERMARKSYMBOL_0
 70
     0
 10
0.0
 20
0.0
 30
0.0
  3
SW_CENTERMARKSYMBOL_0
  1

  0
LINE
  5
A2
330
9F
100
AcDbEntity
  8
FORMAT
 62
     0
100
AcDbLine
 10
0.0
 20
0.0
 30
0.0
 11
0.0
 21
2.5
 31
0.0
  0
LINE
  5
A3
330
9F
100
AcDbEntity
  8
FORMAT
 62
     0
100
AcDbLine
 10
0.0
 20
0.0
 30
0.0
 11
-2.5
 21
0.0
 31
0.0
  0
LINE
  5
A4
330
9F
100
AcDbEntity
  8
FORMAT
 62
     0
100
AcDbLine
 10
0.0
 20
0.0
 30
0.0
 11
0.0
 21
-2.5
 31
0.0
  0
LINE
  5
A5
330
9F
100
AcDbEntity
  8
FORMAT
 62
     0
100
AcDbLine
 10
0.0
 20
0.0
 30
0.0
 11
2.5
 21
0.0
 31
0.0
  0
LINE
  5
A6
330
9F
100
AcDbEntity
  8
FORMAT
 62
     0
100
AcDbLine
 10
0.0
 20
5.0
 30
0.0
 11
0.0
 21
225.0
 31
0.0
  0
LINE
  5
A7
330
9F
100
AcDbEntity
  8
FORMAT
 62
     0
100
AcDbLine
 10
-5.0
 20
0.0
 30
0.0
 11
-225.0
 21
0.0
 31
0.0
  0
LINE
  5
A8
330
9F
100
AcDbEntity
  8
FORMAT
 62
     0
100
AcDbLine
 10
0.0
 20
-5.0
 30
0.0
 11
0.0
 21
-225.0
 31
0.0
  0
LINE
  5
A9
330
9F
100
AcDbEntity
  8
FORMAT
 62
     0
100
AcDbLine
 10
5.0
 20
0.0
 30
0.0
 11
225.0
 21
0.0
 31
0.0
  0
ENDBLK
  5
A1
330
9F
100
AcDbEntity
  8
0
100
AcDbBlockEnd
  0
BLOCK
  5
AC
330
AB
100
AcDbEntity
  8
0
100
AcDbBlockBegin
  2
SW_CENTERMARKSYMBOL_1
 70
     0
 10
0.0
 20
0.0
 30
0.0
  3
SW_CENTERMARKSYMBOL_1
  1

  0
LINE
  5
AE
330
AB
100
AcDbEntity
  8
FORMAT
 62
     0
100
AcDbLine
 10
0.0
 20
0.0
 30
0.0
 11
0.0
 21
2.5
 31
0.0
  0
LINE
  5
AF
330
AB
100
AcDbEntity
  8
FORMAT
 62
     0
100
AcDbLine
 10
0.0
 20
0.0
 30
0.0
 11
-2.5
 21
0.0
 31
0.0
  0
LINE
  5
B0
330
AB
100
AcDbEntity
  8
FORMAT
 62
     0
100
AcDbLine
 10
0.0
 20
0.0
 30
0.0
 11
0.0
 21
-2.5
 31
0.0
  0
LINE
  5
B1
330
AB
100
AcDbEntity
  8
FORMAT
 62
     0
100
AcDbLine
 10
0.0
 20
0.0
 30
0.0
 11
2.5
 21
0.0
 31
0.0
  0
LINE
  5
B2
330
AB
100
AcDbEntity
  8
FORMAT
 62
     0
100
AcDbLine
 10
0.0
 20
5.0
 30
0.0
 11
0.0
 21
13.5
 31
0.0
  0
LINE
  5
B3
330
AB
100
AcDbEntity
  8
FORMAT
 62
     0
100
AcDbLine
 10
-5.0
 20
0.0
 30
0.0
 11
-13.5
 21
0.0
 31
0.0
  0
LINE
  5
B4
330
AB
100
AcDbEntity
  8
FORMAT
 62
     0
100
AcDbLine
 10
0.0
 20
-5.0
 30
0.0
 11
0.0
 21
-13.5
 31
0.0
  0
LINE
  5
B5
330
AB
100
AcDbEntity
  8
FORMAT
 62
     0
100
AcDbLine
 10
5.0
 20
0.0
 30
0.0
 11
13.5
 21
0.0
 31
0.0
  0
ENDBLK
  5
AD
330
AB
100
AcDbEntity
  8
0
100
AcDbBlockEnd
  0
BLOCK
  5
B8
330
B7
100
AcDbEntity
  8
0
100
AcDbBlockBegin
  2
SW_CENTERMARKSYMBOL_2
 70
     0
 10
0.0
 20
0.0
 30
0.0
  3
SW_CENTERMARKSYMBOL_2
  1

  0
LINE
  5
BA
330
B7
100
AcDbEntity
  8
FORMAT
 62
     0
100
AcDbLine
 10
0.0
 20
0.0
 30
0.0
 11
0.0
 21
2.5
 31
0.0
  0
LINE
  5
BB
330
B7
100
AcDbEntity
  8
FORMAT
 62
     0
100
AcDbLine
 10
0.0
 20
0.0
 30
0.0
 11
-2.5
 21
0.0
 31
0.0
  0
LINE
  5
BC
330
B7
100
AcDbEntity
  8
FORMAT
 62
     0
100
AcDbLine
 10
0.0
 20
0.0
 30
0.0
 11
0.0
 21
-2.5
 31
0.0
  0
LINE
  5
BD
330
B7
100
AcDbEntity
  8
FORMAT
 62
     0
100
AcDbLine
 10
0.0
 20
0.0
 30
0.0
 11
2.5
 21
0.0
 31
0.0
  0
LINE
  5
BE
330
B7
100
AcDbEntity
  8
FORMAT
 62
     0
100
AcDbLine
 10
0.0
 20
5.0
 30
0.0
 11
0.0
 21
13.5
 31
0.0
  0
LINE
  5
BF
330
B7
100
AcDbEntity
  8
FORMAT
 62
     0
100
AcDbLine
 10
-5.0
 20
0.0
 30
0.0
 11
-13.5
 21
0.0
 31
0.0
  0
LINE
  5
C0
330
B7
100
AcDbEntity
  8
FORMAT
 62
     0
100
AcDbLine
 10
0.0
 20
-5.0
 30
0.0
 11
0.0
 21
-13.5
 31
0.0
  0
LINE
  5
C1
330
B7
100
AcDbEntity
  8
FORMAT
 62
     0
100
AcDbLine
 10
5.0
 20
0.0
 30
0.0
 11
13.5
 21
0.0
 31
0.0
  0
ENDBLK
  5
B9
330
B7
100
AcDbEntity
  8
0
100
AcDbBlockEnd
  0
BLOCK
  5
C4
330
C3
100
AcDbEntity
  8
0
100
AcDbBlockBegin
  2
SW_CENTERMARKSYMBOL_3
 70
     0
 10
0.0
 20
0.0
 30
0.0
  3
SW_CENTERMARKSYMBOL_3
  1

  0
LINE
  5
C6
330
C3
100
AcDbEntity
  8
FORMAT
 62
     0
100
AcDbLine
 10
0.0
 20
0.0
 30
0.0
 11
0.0
 21
2.5
 31
0.0
  0
LINE
  5
C7
330
C3
100
AcDbEntity
  8
FORMAT
 62
     0
100
AcDbLine
 10
0.0
 20
0.0
 30
0.0
 11
-2.5
 21
0.0
 31
0.0
  0
LINE
  5
C8
330
C3
100
AcDbEntity
  8
FORMAT
 62
     0
100
AcDbLine
 10
0.0
 20
0.0
 30
0.0
 11
0.0
 21
-2.5
 31
0.0
  0
LINE
  5
C9
330
C3
100
AcDbEntity
  8
FORMAT
 62
     0
100
AcDbLine
 10
0.0
 20
0.0
 30
0.0
 11
2.5
 21
0.0
 31
0.0
  0
LINE
  5
CA
330
C3
100
AcDbEntity
  8
FORMAT
 62
     0
100
AcDbLine
 10
0.0
 20
5.0
 30
0.0
 11
0.0
 21
13.5
 31
0.0
  0
LINE
  5
CB
330
C3
100
AcDbEntity
  8
FORMAT
 62
     0
100
AcDbLine
 10
-5.0
 20
0.0
 30
0.0
 11
-13.5
 21
0.0
 31
0.0
  0
LINE
  5
CC
330
C3
100
AcDbEntity
  8
FORMAT
 62
     0
100
AcDbLine
 10
0.0
 20
-5.0
 30
0.0
 11
0.0
 21
-13.5
 31
0.0
  0
LINE
  5
CD
330
C3
100
AcDbEntity
  8
FORMAT
 62
     0
100
AcDbLine
 10
5.0
 20
0.0
 30
0.0
 11
13.5
 21
0.0
 31
0.0
  0
ENDBLK
  5
C5
330
C3
100
AcDbEntity
  8
0
100
AcDbBlockEnd
  0
BLOCK
  5
D0
330
CF
100
AcDbEntity
  8
0
100
AcDbBlockBegin
  2
SW_CENTERMARKSYMBOL_4
 70
     0
 10
0.0
 20
0.0
 30
0.0
  3
SW_CENTERMARKSYMBOL_4
  1

  0
LINE
  5
D2
330
CF
100
AcDbEntity
  8
FORMAT
 62
     0
100
AcDbLine
 10
0.0
 20
0.0
 30
0.0
 11
0.0
 21
2.5
 31
0.0
  0
LINE
  5
D3
330
CF
100
AcDbEntity
  8
FORMAT
 62
     0
100
AcDbLine
 10
0.0
 20
0.0
 30
0.0
 11
-2.5
 21
0.0
 31
0.0
  0
LINE
  5
D4
330
CF
100
AcDbEntity
  8
FORMAT
 62
     0
100
AcDbLine
 10
0.0
 20
0.0
 30
0.0
 11
0.0
 21
-2.5
 31
0.0
  0
LINE
  5
D5
330
CF
100
AcDbEntity
  8
FORMAT
 62
     0
100
AcDbLine
 10
0.0
 20
0.0
 30
0.0
 11
2.5
 21
0.0
 31
0.0
  0
LINE
  5
D6
330
CF
100
AcDbEntity
  8
FORMAT
 62
     0
100
AcDbLine
 10
0.0
 20
5.0
 30
0.0
 11
0.0
 21
13.5
 31
0.0
  0
LINE
  5
D7
330
CF
100
AcDbEntity
  8
FORMAT
 62
     0
100
AcDbLine
 10
-5.0
 20
0.0
 30
0.0
 11
-13.5
 21
0.0
 31
0.0
  0
LINE
  5
D8
330
CF
100
AcDbEntity
  8
FORMAT
 62
     0
100
AcDbLine
 10
0.0
 20
-5.0
 30
0.0
 11
0.0
 21
-13.5
 31
0.0
  0
LINE
  5
D9
330
CF
100
AcDbEntity
  8
FORMAT
 62
     0
100
AcDbLine
 10
5.0
 20
0.0
 30
0.0
 11
13.5
 21
0.0
 31
0.0
  0
ENDBLK
  5
D1
330
CF
100
AcDbEntity
  8
0
100
AcDbBlockEnd
  0
BLOCK
  5
DC
330
DB
100
AcDbEntity
  8
0
100
AcDbBlockBegin
  2
SW_CENTERMARKSYMBOL_5
 70
     0
 10
0.0
 20
0.0
 30
0.0
  3
SW_CENTERMARKSYMBOL_5
  1

  0
LINE
  5
DE
330
DB
100
AcDbEntity
  8
FORMAT
 62
     0
100
AcDbLine
 10
0.0
 20
0.0
 30
0.0
 11
0.0
 21
2.5
 31
0.0
  0
LINE
  5
DF
330
DB
100
AcDbEntity
  8
FORMAT
 62
     0
100
AcDbLine
 10
0.0
 20
0.0
 30
0.0
 11
-2.5
 21
0.0
 31
0.0
  0
LINE
  5
E0
330
DB
100
AcDbEntity
  8
FORMAT
 62
     0
100
AcDbLine
 10
0.0
 20
0.0
 30
0.0
 11
0.0
 21
-2.5
 31
0.0
  0
LINE
  5
E1
330
DB
100
AcDbEntity
  8
FORMAT
 62
     0
100
AcDbLine
 10
0.0
 20
0.0
 30
0.0
 11
2.5
 21
0.0
 31
0.0
  0
LINE
  5
E2
330
DB
100
AcDbEntity
  8
FORMAT
 62
     0
100
AcDbLine
 10
0.0
 20
5.0
 30
0.0
 11
0.0
 21
14.5
 31
0.0
  0
LINE
  5
E3
330
DB
100
AcDbEntity
  8
FORMAT
 62
     0
100
AcDbLine
 10
-5.0
 20
0.0
 30
0.0
 11
-14.5
 21
0.0
 31
0.0
  0
LINE
  5
E4
330
DB
100
AcDbEntity
  8
FORMAT
 62
     0
100
AcDbLine
 10
0.0
 20
-5.0
 30
0.0
 11
0.0
 21
-14.5
 31
0.0
  0
LINE
  5
E5
330
DB
100
AcDbEntity
  8
FORMAT
 62
     0
100
AcDbLine
 10
5.0
 20
0.0
 30
0.0
 11
14.5
 21
0.0
 31
0.0
  0
ENDBLK
  5
DD
330
DB
100
AcDbEntity
  8
0
100
AcDbBlockEnd
  0
BLOCK
  5
E8
330
E7
100
AcDbEntity
  8
0
100
AcDbBlockBegin
  2
SW_CENTERMARKSYMBOL_6
 70
     0
 10
0.0
 20
0.0
 30
0.0
  3
SW_CENTERMARKSYMBOL_6
  1

  0
LINE
  5
EA
330
E7
100
AcDbEntity
  8
FORMAT
 62
     0
100
AcDbLine
 10
0.0
 20
0.0
 30
0.0
 11
0.0
 21
2.5
 31
0.0
  0
LINE
  5
EB
330
E7
100
AcDbEntity
  8
FORMAT
 62
     0
100
AcDbLine
 10
0.0
 20
0.0
 30
0.0
 11
-2.5
 21
0.0
 31
0.0
  0
LINE
  5
EC
330
E7
100
AcDbEntity
  8
FORMAT
 62
     0
100
AcDbLine
 10
0.0
 20
0.0
 30
0.0
 11
0.0
 21
-2.5
 31
0.0
  0
LINE
  5
ED
330
E7
100
AcDbEntity
  8
FORMAT
 62
     0
100
AcDbLine
 10
0.0
 20
0.0
 30
0.0
 11
2.5
 21
0.0
 31
0.0
  0
LINE
  5
EE
330
E7
100
AcDbEntity
  8
FORMAT
 62
     0
100
AcDbLine
 10
0.0
 20
5.0
 30
0.0
 11
0.0
 21
14.5
 31
0.0
  0
LINE
  5
EF
330
E7
100
AcDbEntity
  8
FORMAT
 62
     0
100
AcDbLine
 10
-5.0
 20
0.0
 30
0.0
 11
-14.5
 21
0.0
 31
0.0
  0
LINE
  5
F0
330
E7
100
AcDbEntity
  8
FORMAT
 62
     0
100
AcDbLine
 10
0.0
 20
-5.0
 30
0.0
 11
0.0
 21
-14.5
 31
0.0
  0
LINE
  5
F1
330
E7
100
AcDbEntity
  8
FORMAT
 62
     0
100
AcDbLine
 10
5.0
 20
0.0
 30
0.0
 11
14.5
 21
0.0
 31
0.0
  0
ENDBLK
  5
E9
330
E7
100
AcDbEntity
  8
0
100
AcDbBlockEnd
  0
BLOCK
  5
F4
330
F3
100
AcDbEntity
  8
0
100
AcDbBlockBegin
  2
SW_CENTERMARKSYMBOL_7
 70
     0
 10
0.0
 20
0.0
 30
0.0
  3
SW_CENTERMARKSYMBOL_7
  1

  0
LINE
  5
F6
330
F3
100
AcDbEntity
  8
FORMAT
 62
     0
100
AcDbLine
 10
0.0
 20
0.0
 30
0.0
 11
0.0
 21
2.5
 31
0.0
  0
LINE
  5
F7
330
F3
100
AcDbEntity
  8
FORMAT
 62
     0
100
AcDbLine
 10
0.0
 20
0.0
 30
0.0
 11
-2.5
 21
0.0
 31
0.0
  0
LINE
  5
F8
330
F3
100
AcDbEntity
  8
FORMAT
 62
     0
100
AcDbLine
 10
0.0
 20
0.0
 30
0.0
 11
0.0
 21
-2.5
 31
0.0
  0
LINE
  5
F9
330
F3
100
AcDbEntity
  8
FORMAT
 62
     0
100
AcDbLine
 10
0.0
 20
0.0
 30
0.0
 11
2.5
 21
0.0
 31
0.0
  0
LINE
  5
FA
330
F3
100
AcDbEntity
  8
FORMAT
 62
     0
100
AcDbLine
 10
0.0
 20
5.0
 30
0.0
 11
0.0
 21
14.5
 31
0.0
  0
LINE
  5
FB
330
F3
100
AcDbEntity
  8
FORMAT
 62
     0
100
AcDbLine
 10
-5.0
 20
0.0
 30
0.0
 11
-14.5
 21
0.0
 31
0.0
  0
LINE
  5
FC
330
F3
100
AcDbEntity
  8
FORMAT
 62
     0
100
AcDbLine
 10
0.0
 20
-5.0
 30
0.0
 11
0.0
 21
-14.5
 31
0.0
  0
LINE
  5
FD
330
F3
100
AcDbEntity
  8
FORMAT
 62
     0
100
AcDbLine
 10
5.0
 20
0.0
 30
0.0
 11
14.5
 21
0.0
 31
0.0
  0
ENDBLK
  5
F5
330
F3
100
AcDbEntity
  8
0
100
AcDbBlockEnd
  0
BLOCK
  5
100
330
FF
100
AcDbEntity
  8
0
100
AcDbBlockBegin
  2
SW_CENTERMARKSYMBOL_8
 70
     0
 10
0.0
 20
0.0
 30
0.0
  3
SW_CENTERMARKSYMBOL_8
  1

  0
LINE
  5
102
330
FF
100
AcDbEntity
  8
FORMAT
 62
     0
100
AcDbLine
 10
0.0
 20
0.0
 30
0.0
 11
0.0
 21
2.5
 31
0.0
  0
LINE
  5
103
330
FF
100
AcDbEntity
  8
FORMAT
 62
     0
100
AcDbLine
 10
0.0
 20
0.0
 30
0.0
 11
-2.5
 21
0.0
 31
0.0
  0
LINE
  5
104
330
FF
100
AcDbEntity
  8
FORMAT
 62
     0
100
AcDbLine
 10
0.0
 20
0.0
 30
0.0
 11
0.0
 21
-2.5
 31
0.0
  0
LINE
  5
105
330
FF
100
AcDbEntity
  8
FORMAT
 62
     0
100
AcDbLine
 10
0.0
 20
0.0
 30
0.0
 11
2.5
 21
0.0
 31
0.0
  0
LINE
  5
106
330
FF
100
AcDbEntity
  8
FORMAT
 62
     0
100
AcDbLine
 10
0.0
 20
5.0
 30
0.0
 11
0.0
 21
14.5
 31
0.0
  0
LINE
  5
107
330
FF
100
AcDbEntity
  8
FORMAT
 62
     0
100
AcDbLine
 10
-5.0
 20
0.0
 30
0.0
 11
-14.5
 21
0.0
 31
0.0
  0
LINE
  5
108
330
FF
100
AcDbEntity
  8
FORMAT
 62
     0
100
AcDbLine
 10
0.0
 20
-5.0
 30
0.0
 11
0.0
 21
-14.5
 31
0.0
  0
LINE
  5
109
330
FF
100
AcDbEntity
  8
FORMAT
 62
     0
100
AcDbLine
 10
5.0
 20
0.0
 30
0.0
 11
14.5
 21
0.0
 31
0.0
  0
ENDBLK
  5
101
330
FF
100
AcDbEntity
  8
0
100
AcDbBlockEnd
  0
BLOCK
  5
10C
330
10B
100
AcDbEntity
  8
0
100
AcDbBlockBegin
  2
SW_CENTERMARKSYMBOL_9
 70
     0
 10
0.0
 20
0.0
 30
0.0
  3
SW_CENTERMARKSYMBOL_9
  1

  0
LINE
  5
10E
330
10B
100
AcDbEntity
  8
FORMAT
 62
     0
100
AcDbLine
 10
0.0
 20
0.0
 30
0.0
 11
0.0
 21
2.5
 31
0.0
  0
LINE
  5
10F
330
10B
100
AcDbEntity
  8
FORMAT
 62
     0
100
AcDbLine
 10
0.0
 20
0.0
 30
0.0
 11
-2.5
 21
0.0
 31
0.0
  0
LINE
  5
110
330
10B
100
AcDbEntity
  8
FORMAT
 62
     0
100
AcDbLine
 10
0.0
 20
0.0
 30
0.0
 11
0.0
 21
-2.5
 31
0.0
  0
LINE
  5
111
330
10B
100
AcDbEntity
  8
FORMAT
 62
     0
100
AcDbLine
 10
0.0
 20
0.0
 30
0.0
 11
2.5
 21
0.0
 31
0.0
  0
LINE
  5
112
330
10B
100
AcDbEntity
  8
FORMAT
 62
     0
100
AcDbLine
 10
0.0
 20
5.0
 30
0.0
 11
0.0
 21
14.5
 31
0.0
  0
LINE
  5
113
330
10B
100
AcDbEntity
  8
FORMAT
 62
     0
100
AcDbLine
 10
-5.0
 20
0.0
 30
0.0
 11
-14.5
 21
0.0
 31
0.0
  0
LINE
  5
114
330
10B
100
AcDbEntity
  8
FORMAT
 62
     0
100
AcDbLine
 10
0.0
 20
-5.0
 30
0.0
 11
0.0
 21
-14.5
 31
0.0
  0
LINE
  5
115
330
10B
100
AcDbEntity
  8
FORMAT
 62
     0
100
AcDbLine
 10
5.0
 20
0.0
 30
0.0
 11
14.5
 21
0.0
 31
0.0
  0
ENDBLK
  5
10D
330
10B
100
AcDbEntity
  8
0
100
AcDbBlockEnd
  0
BLOCK
  5
118
330
117
100
AcDbEntity
  8
0
100
AcDbBlockBegin
  2
SW_CENTERMARKSYMBOL_10
 70
     0
 10
0.0
 20
0.0
 30
0.0
  3
SW_CENTERMARKSYMBOL_10
  1

  0
LINE
  5
11A
330
117
100
AcDbEntity
  8
FORMAT
 62
     0
100
AcDbLine
 10
0.0
 20
0.0
 30
0.0
 11
0.0
 21
2.5
 31
0.0
  0
LINE
  5
11B
330
117
100
AcDbEntity
  8
FORMAT
 62
     0
100
AcDbLine
 10
0.0
 20
0.0
 30
0.0
 11
-2.5
 21
0.0
 31
0.0
  0
LINE
  5
11C
330
117
100
AcDbEntity
  8
FORMAT
 62
     0
100
AcDbLine
 10
0.0
 20
0.0
 30
0.0
 11
0.0
 21
-2.5
 31
0.0
  0
LINE
  5
11D
330
117
100
AcDbEntity
  8
FORMAT
 62
     0
100
AcDbLine
 10
0.0
 20
0.0
 30
0.0
 11
2.5
 21
0.0
 31
0.0
  0
LINE
  5
11E
330
117
100
AcDbEntity
  8
FORMAT
 62
     0
100
AcDbLine
 10
0.0
 20
5.0
 30
0.0
 11
0.0
 21
14.5
 31
0.0
  0
LINE
  5
11F
330
117
100
AcDbEntity
  8
FORMAT
 62
     0
100
AcDbLine
 10
-5.0
 20
0.0
 30
0.0
 11
-14.5
 21
0.0
 31
0.0
  0
LINE
  5
120
330
117
100
AcDbEntity
  8
FORMAT
 62
     0
100
AcDbLine
 10
0.0
 20
-5.0
 30
0.0
 11
0.0
 21
-14.5
 31
0.0
  0
LINE
  5
121
330
117
100
AcDbEntity
  8
FORMAT
 62
     0
100
AcDbLine
 10
5.0
 20
0.0
 30
0.0
 11
14.5
 21
0.0
 31
0.0
  0
ENDBLK
  5
119
330
117
100
AcDbEntity
  8
0
100
AcDbBlockEnd
  0
BLOCK
  5
124
330
123
100
AcDbEntity
  8
0
100
AcDbBlockBegin
  2
SW_CENTERMARKSYMBOL_11
 70
     0
 10
0.0
 20
0.0
 30
0.0
  3
SW_CENTERMARKSYMBOL_11
  1

  0
LINE
  5
126
330
123
100
AcDbEntity
  8
FORMAT
 62
     0
100
AcDbLine
 10
0.0
 20
0.0
 30
0.0
 11
0.0
 21
2.5
 31
0.0
  0
LINE
  5
127
330
123
100
AcDbEntity
  8
FORMAT
 62
     0
100
AcDbLine
 10
0.0
 20
0.0
 30
0.0
 11
-2.5
 21
0.0
 31
0.0
  0
LINE
  5
128
330
123
100
AcDbEntity
  8
FORMAT
 62
     0
100
AcDbLine
 10
0.0
 20
0.0
 30
0.0
 11
0.0
 21
-2.5
 31
0.0
  0
LINE
  5
129
330
123
100
AcDbEntity
  8
FORMAT
 62
     0
100
AcDbLine
 10
0.0
 20
0.0
 30
0.0
 11
2.5
 21
0.0
 31
0.0
  0
LINE
  5
12A
330
123
100
AcDbEntity
  8
FORMAT
 62
     0
100
AcDbLine
 10
0.0
 20
5.0
 30
0.0
 11
0.0
 21
14.5
 31
0.0
  0
LINE
  5
12B
330
123
100
AcDbEntity
  8
FORMAT
 62
     0
100
AcDbLine
 10
-5.0
 20
0.0
 30
0.0
 11
-14.5
 21
0.0
 31
0.0
  0
LINE
  5
12C
330
123
100
AcDbEntity
  8
FORMAT
 62
     0
100
AcDbLine
 10
0.0
 20
-5.0
 30
0.0
 11
0.0
 21
-14.5
 31
0.0
  0
LINE
  5
12D
330
123
100
AcDbEntity
  8
FORMAT
 62
     0
100
AcDbLine
 10
5.0
 20
0.0
 30
0.0
 11
14.5
 21
0.0
 31
0.0
  0
ENDBLK
  5
125
330
123
100
AcDbEntity
  8
0
100
AcDbBlockEnd
  0
BLOCK
  5
130
330
12F
100
AcDbEntity
  8
0
100
AcDbBlockBegin
  2
SW_CENTERMARKSYMBOL_12
 70
     0
 10
0.0
 20
0.0
 30
0.0
  3
SW_CENTERMARKSYMBOL_12
  1

  0
LINE
  5
132
330
12F
100
AcDbEntity
  8
FORMAT
 62
     0
100
AcDbLine
 10
0.0
 20
0.0
 30
0.0
 11
0.0
 21
2.5
 31
0.0
  0
LINE
  5
133
330
12F
100
AcDbEntity
  8
FORMAT
 62
     0
100
AcDbLine
 10
0.0
 20
0.0
 30
0.0
 11
-2.5
 21
0.0
 31
0.0
  0
LINE
  5
134
330
12F
100
AcDbEntity
  8
FORMAT
 62
     0
100
AcDbLine
 10
0.0
 20
0.0
 30
0.0
 11
0.0
 21
-2.5
 31
0.0
  0
LINE
  5
135
330
12F
100
AcDbEntity
  8
FORMAT
 62
     0
100
AcDbLine
 10
0.0
 20
0.0
 30
0.0
 11
2.5
 21
0.0
 31
0.0
  0
LINE
  5
136
330
12F
100
AcDbEntity
  8
FORMAT
 62
     0
100
AcDbLine
 10
0.0
 20
5.0
 30
0.0
 11
0.0
 21
14.5
 31
0.0
  0
LINE
  5
137
330
12F
100
AcDbEntity
  8
FORMAT
 62
     0
100
AcDbLine
 10
-5.0
 20
0.0
 30
0.0
 11
-14.5
 21
0.0
 31
0.0
  0
LINE
  5
138
330
12F
100
AcDbEntity
  8
FORMAT
 62
     0
100
AcDbLine
 10
0.0
 20
-5.0
 30
0.0
 11
0.0
 21
-14.5
 31
0.0
  0
LINE
  5
139
330
12F
100
AcDbEntity
  8
FORMAT
 62
     0
100
AcDbLine
 10
5.0
 20
0.0
 30
0.0
 11
14.5
 21
0.0
 31
0.0
  0
ENDBLK
  5
131
330
12F
100
AcDbEntity
  8
0
100
AcDbBlockEnd
  0
ENDSEC
  0
SECTION
  2
ENTITIES
  0
CIRCLE
  5
83
330
1F
100
AcDbEntity
  8
0
  6
Continuous
 62
     7
370
    25
100
AcDbCircle
 10
-38.0944869365
 20
215.6909958732
 30
0.0
 40
12.00000000000001
  0
CIRCLE
  5
84
330
1F
100
AcDbEntity
  8
0
  6
Continuous
 62
     7
370
    25
100
AcDbCircle
 10
-38.0944869365
 20
15.6909958732
 30
0.0
 40
11.99999999999998
  0
CIRCLE
  5
85
330
1F
100
AcDbEntity
  8
0
  6
Continuous
 62
     7
370
    25
100
AcDbCircle
 10
135.1105938204
 20
-84.3090041268
 30
0.0
 40
12.00000000000003
  0
CIRCLE
  5
86
330
1F
100
AcDbEntity
  8
0
  6
Continuous
 62
     7
370
    25
100
AcDbCircle
 10
335.1105938204
 20
115.6909958732
 30
0.0
 40
11.99999999999994
  0
CIRCLE
  5
87
330
1F
100
AcDbEntity
  8
0
  6
Continuous
 62
     7
370
    25
100
AcDbCircle
 10
235.1105938204
 20
288.8960766301
 30
0.0
 40
12.0
  0
CIRCLE
  5
88
330
1F
100
AcDbEntity
  8
0
  6
Continuous
 62
     7
370
    25
100
AcDbCircle
 10
135.1105938204
 20
315.6909958732
 30
0.0
 40
12.0
  0
CIRCLE
  5
89
330
1F
100
AcDbEntity
  8
0
  6
Continuous
 62
     7
370
    25
100
AcDbCircle
 10
135.1105938204
 20
115.6909958732
 30
0.0
 40
221.5
  0
CIRCLE
  5
8A
330
1F
100
AcDbEntity
  8
0
  6
Continuous
 62
     7
370
    25
100
AcDbCircle
 10
135.1105938204
 20
115.6909958732
 30
0.0
 40
170.0
  0
CIRCLE
  5
8B
330
1F
100
AcDbEntity
  8
0
  6
Continuous
 62
     7
370
    25
100
AcDbCircle
 10
308.3156745773
 20
15.6909958732
 30
0.0
 40
12.0
  0
CIRCLE
  5
8C
330
1F
100
AcDbEntity
  8
0
  6
Continuous
 62
     7
370
    25
100
AcDbCircle
 10
308.3156745773
 20
215.6909958732
 30
0.0
 40
11.99999999999994
  0
CIRCLE
  5
8D
330
1F
100
AcDbEntity
  8
0
  6
Continuous
 62
     7
370
    25
100
AcDbCircle
 10
235.1105938204
 20
-57.5140848837
 30
0.0
 40
12.0
  0
CIRCLE
  5
8E
330
1F
100
AcDbEntity
  8
0
  6
Continuous
 62
     7
370
    25
100
AcDbCircle
 10
35.1105938204
 20
-57.5140848837
 30
0.0
 40
11.99999999999998
  0
CIRCLE
  5
8F
330
1F
100
AcDbEntity
  8
0
  6
Continuous
 62
     7
370
    25
100
AcDbCircle
 10
-64.8894061796
 20
115.6909958732
 30
0.0
 40
12.00000000000001
  0
CIRCLE
  5
90
330
1F
100
AcDbEntity
  8
0
  6
Continuous
 62
     7
370
    25
100
AcDbCircle
 10
35.1105938204
 20
288.8960766301
 30
0.0
 40
11.99999999999999
  0
CIRCLE
  5
91
330
1F
100
AcDbEntity
  8
0
  6
Continuous
 62
     7
370
    25
100
AcDbCircle
 10
308.3156745773
 20
215.6909958732
 30
0.0
 40
10.99999999999994
  0
CIRCLE
  5
92
330
1F
100
AcDbEntity
  8
0
  6
Continuous
 62
     7
370
    25
100
AcDbCircle
 10
308.3156745773
 20
15.6909958732
 30
0.0
 40
11.0
  0
CIRCLE
  5
93
330
1F
100
AcDbEntity
  8
0
  6
Continuous
 62
     7
370
    25
100
AcDbCircle
 10
135.1105938204
 20
115.6909958732
 30
0.0
 40
169.0
  0
CIRCLE
  5
94
330
1F
100
AcDbEntity
  8
0
  6
Continuous
 62
     7
370
    25
100
AcDbCircle
 10
135.1105938204
 20
115.6909958732
 30
0.0
 40
222.5
  0
CIRCLE
  5
95
330
1F
100
AcDbEntity
  8
0
  6
Continuous
 62
     7
370
    25
100
AcDbCircle
 10
135.1105938204
 20
315.6909958732
 30
0.0
 40
11.0
  0
CIRCLE
  5
96
330
1F
100
AcDbEntity
  8
0
  6
Continuous
 62
     7
370
    25
100
AcDbCircle
 10
235.1105938204
 20
288.8960766301
 30
0.0
 40
11.0
  0
CIRCLE
  5
97
330
1F
100
AcDbEntity
  8
0
  6
Continuous
 62
     7
370
    25
100
AcDbCircle
 10
335.1105938204
 20
115.6909958732
 30
0.0
 40
10.99999999999994
  0
CIRCLE
  5
98
330
1F
100
AcDbEntity
  8
0
  6
Continuous
 62
     7
370
    25
100
AcDbCircle
 10
35.1105938204
 20
288.8960766301
 30
0.0
 40
10.99999999999999
  0
CIRCLE
  5
99
330
1F
100
AcDbEntity
  8
0
  6
Continuous
 62
     7
370
    25
100
AcDbCircle
 10
-64.8894061796
 20
115.6909958732
 30
0.0
 40
11.00000000000001
  0
CIRCLE
  5
9A
330
1F
100
AcDbEntity
  8
0
  6
Continuous
 62
     7
370
    25
100
AcDbCircle
 10
35.1105938204
 20
-57.5140848837
 30
0.0
 40
10.99999999999998
  0
CIRCLE
  5
9B
330
1F
100
AcDbEntity
  8
0
  6
Continuous
 62
     7
370
    25
100
AcDbCircle
 10
235.1105938204
 20
-57.5140848837
 30
0.0
 40
11.0
  0
CIRCLE
  5
9C
330
1F
100
AcDbEntity
  8
0
  6
Continuous
 62
     7
370
    25
100
AcDbCircle
 10
135.1105938204
 20
-84.3090041268
 30
0.0
 40
11.00000000000003
  0
CIRCLE
  5
9D
330
1F
100
AcDbEntity
  8
0
  6
Continuous
 62
     7
370
    25
100
AcDbCircle
 10
-38.0944869365
 20
15.6909958732
 30
0.0
 40
10.99999999999998
  0
CIRCLE
  5
9E
330
1F
100
AcDbEntity
  8
0
  6
Continuous
 62
     7
370
    25
100
AcDbCircle
 10
-38.0944869365
 20
215.6909958732
 30
0.0
 40
11.00000000000001
  0
INSERT
  5
AA
330
1F
100
AcDbEntity
  8
FORMAT
 62
     7
100
AcDbBlockReference
  2
SW_CENTERMARKSYMBOL_0
 10
135.1105938204
 20
115.6909958732
 30
0.0
  0
INSERT
  5
B6
330
1F
100
AcDbEntity
  8
FORMAT
 62
     7
100
AcDbBlockReference
  2
SW_CENTERMARKSYMBOL_1
 10
135.1105938204
 20
315.6909958732
 30
0.0
  0
INSERT
  5
C2
330
1F
100
AcDbEntity
  8
FORMAT
 62
     7
100
AcDbBlockReference
  2
SW_CENTERMARKSYMBOL_2
 10
235.1105938204
 20
288.8960766301
 30
0.0
  0
INSERT
  5
CE
330
1F
100
AcDbEntity
  8
FORMAT
 62
     7
100
AcDbBlockReference
  2
SW_CENTERMARKSYMBOL_3
 10
308.3156745773
 20
215.6909958732
 30
0.0
  0
INSERT
  5
DA
330
1F
100
AcDbEntity
  8
FORMAT
 62
     7
100
AcDbBlockReference
  2
SW_CENTERMARKSYMBOL_4
 10
335.1105938204
 20
115.6909958732
 30
0.0
  0
INSERT
  5
E6
330
1F
100
AcDbEntity
  8
FORMAT
 62
     7
100
AcDbBlockReference
  2
SW_CENTERMARKSYMBOL_5
 10
35.1105938204
 20
288.8960766301
 30
0.0
  0
INSERT
  5
F2
330
1F
100
AcDbEntity
  8
FORMAT
 62
     7
100
AcDbBlockReference
  2
SW_CENTERMARKSYMBOL_6
 10
-38.0944869365
 20
215.6909958732
 30
0.0
  0
INSERT
  5
FE
330
1F
100
AcDbEntity
  8
FORMAT
 62
     7
100
AcDbBlockReference
  2
SW_CENTERMARKSYMBOL_7
 10
-64.8894061796
 20
115.6909958732
 30
0.0
  0
INSERT
  5
10A
330
1F
100
AcDbEntity
  8
FORMAT
 62
     7
100
AcDbBlockReference
  2
SW_CENTERMARKSYMBOL_8
 10
-38.0944869365
 20
15.6909958732
 30
0.0
  0
INSERT
  5
116
330
1F
100
AcDbEntity
  8
FORMAT
 62
     7
100
AcDbBlockReference
  2
SW_CENTERMARKSYMBOL_9
 10
35.1105938204
 20
-57.5140848837
 30
0.0
  0
INSERT
  5
122
330
1F
100
AcDbEntity
  8
FORMAT
 62
     7
100
AcDbBlockReference
  2
SW_CENTERMARKSYMBOL_10
 10
308.3156745773
 20
15.6909958732
 30
0.0
  0
INSERT
  5
12E
330
1F
100
AcDbEntity
  8
FORMAT
 62
     7
100
AcDbBlockReference
  2
SW_CENTERMARKSYMBOL_11
 10
235.1105938204
 20
-57.5140848837
 30
0.0
  0
INSERT
  5
13A
330
1F
100
AcDbEntity
  8
FORMAT
 62
     7
100
AcDbBlockReference
  2
SW_CENTERMARKSYMBOL_12
 10
135.1105938204
 20
-84.3090041268
 30
0.0
  0
LINE
  5
13B
330
1F
100
AcDbEntity
  8
0
  6
Continuous
 62
     7
370
    25
100
AcDbLine
 10
-386.8757173879
 20
338.1909958732
 30
0.0
 11
-418.8757173879
 21
338.1909958732
 31
0.0
  0
LINE
  5
13C
330
1F
100
AcDbEntity
  8
0
  6
Continuous
 62
     7
370
    25
100
AcDbLine
 10
-418.8757173879
 20
-106.8090041268
 30
0.0
 11
-386.8757173879
 21
-106.8090041268
 31
0.0
  0
ARC
  5
13D
330
1F
100
AcDbEntity
  8
0
  6
Continuous
 62
     7
370
    25
100
AcDbCircle
 10
-386.8757173879
 20
-105.8090041268
 30
0.0
 40
1.0
100
AcDbArc
 50
270.0
 51
0.0
  0
ARC
  5
13E
330
1F
100
AcDbEntity
  8
0
  6
Continuous
 62
     7
370
    25
100
AcDbCircle
 10
-386.8757173879
 20
337.1909958732
 30
0.0
 40
1.0
100
AcDbArc
 50
0.0
 51
90.0
  0
ARC
  5
13F
330
1F
100
AcDbEntity
  8
0
  6
Continuous
 62
     7
370
    25
100
AcDbCircle
 10
-418.8757173879
 20
-105.8090041268
 30
0.0
 40
1.0
100
AcDbArc
 50
180.0
 51
270.0
  0
ARC
  5
140
330
1F
100
AcDbEntity
  8
0
  6
Continuous
 62
     7
370
    25
100
AcDbCircle
 10
-418.8757173879
 20
337.1909958732
 30
0.0
 40
1.0
100
AcDbArc
 50
90.0
 51
180.0
  0
LINE
  5
141
330
1F
100
AcDbEntity
  8
0
  6
Continuous
 62
     7
370
    25
100
AcDbLine
 10
-385.8757173879
 20
115.6909958732
 30
0.0
 11
-385.8757173879
 21
-105.8090041268
 31
0.0
  0
LINE
  5
142
330
1F
100
AcDbEntity
  8
0
  6
Continuous
 62
     7
370
    25
100
AcDbLine
 10
-385.8757173879
 20
337.1909958732
 30
0.0
 11
-385.8757173879
 21
115.6909958732
 31
0.0
  0
LINE
  5
143
330
1F
100
AcDbEntity
  8
0
  6
Continuous
 62
     7
370
    25
100
AcDbLine
 10
-419.8757173879
 20
115.6909958732
 30
0.0
 11
-419.8757173879
 21
337.1909958732
 31
0.0
  0
LINE
  5
144
330
1F
100
AcDbEntity
  8
0
  6
Continuous
 62
     7
370
    25
100
AcDbLine
 10
-419.8757173879
 20
-105.8090041268
 30
0.0
 11
-419.8757173879
 21
115.6909958732
 31
0.0
  0
LINE
  5
145
330
1F
100
AcDbEntity
  8
0
  6
Continuous
 62
     1
370
    25
100
AcDbLine
 10
-418.8757173879
 20
115.6909958732
 30
0.0
 11
-418.8757173879
 21
-106.8090041268
 31
0.0
  0
LINE
  5
146
330
1F
100
AcDbEntity
  8
0
  6
Continuous
 62
     1
370
    25
100
AcDbLine
 10
-418.8757173879
 20
338.1909958732
 30
0.0
 11
-418.8757173879
 21
115.6909958732
 31
0.0
  0
LINE
  5
147
330
1F
100
AcDbEntity
  8
0
  6
Continuous
 62
     1
370
    25
100
AcDbLine
 10
-386.8757173879
 20
115.6909958732
 30
0.0
 11
-386.8757173879
 21
338.1909958732
 31
0.0
  0
LINE
  5
148
330
1F
100
AcDbEntity
  8
0
  6
Continuous
 62
     1
370
    25
100
AcDbLine
 10
-386.8757173879
 20
-106.8090041268
 30
0.0
 11
-386.8757173879
 21
115.6909958732
 31
0.0
  0
LINE
  5
149
330
1F
100
AcDbEntity
  8
0
  6
Continuous
 62
     7
370
    25
100
AcDbLine
 10
662.8634375354
 20
-106.8090041268
 30
0.0
 11
694.8634375354
 21
-106.8090041268
 31
0.0
  0
LINE
  5
14A
330
1F
100
AcDbEntity
  8
0
  6
Continuous
 62
     7
370
    25
100
AcDbLine
 10
694.8634375354
 20
338.1909958732
 30
0.0
 11
662.8634375354
 21
338.1909958732
 31
0.0
  0
ARC
  5
14B
330
1F
100
AcDbEntity
  8
0
  6
Continuous
 62
     7
370
    25
100
AcDbCircle
 10
662.8634375354
 20
337.1909958732
 30
0.0
 40
1.0
100
AcDbArc
 50
90.0
 51
180.0
  0
ARC
  5
14C
330
1F
100
AcDbEntity
  8
0
  6
Continuous
 62
     7
370
    25
100
AcDbCircle
 10
662.8634375354
 20
-105.8090041268
 30
0.0
 40
1.0
100
AcDbArc
 50
180.0
 51
270.0
  0
ARC
  5
14D
330
1F
100
AcDbEntity
  8
0
  6
Continuous
 62
     7
370
    25
100
AcDbCircle
 10
694.8634375354
 20
337.1909958732
 30
0.0
 40
1.0
100
AcDbArc
 50
0.0
 51
90.0
  0
ARC
  5
14E
330
1F
100
AcDbEntity
  8
0
  6
Continuous
 62
     7
370
    25
100
AcDbCircle
 10
694.8634375354
 20
-105.8090041268
 30
0.0
 40
1.0
100
AcDbArc
 50
270.0
 51
0.0
  0
LINE
  5
14F
330
1F
100
AcDbEntity
  8
0
  6
Continuous
 62
     7
370
    25
100
AcDbLine
 10
661.8634375354
 20
-105.8090041268
 30
0.0
 11
661.8634375354
 21
337.1909958732
 31
0.0
  0
LINE
  5
150
330
1F
100
AcDbEntity
  8
0
  6
Continuous
 62
     7
370
    25
100
AcDbLine
 10
695.8634375354
 20
337.1909958732
 30
0.0
 11
695.8634375354
 21
-105.8090041268
 31
0.0
  0
LINE
  5
151
330
1F
100
AcDbEntity
  8
0
  6
Continuous
 62
     1
370
    25
100
AcDbLine
 10
694.8634375354
 20
-106.8090041268
 30
0.0
 11
694.8634375354
 21
338.1909958732
 31
0.0
  0
LINE
  5
152
330
1F
100
AcDbEntity
  8
0
  6
Continuous
 62
     1
370
    25
100
AcDbLine
 10
662.8634375354
 20
338.1909958732
 30
0.0
 11
662.8634375354
 21
-106.8090041268
 31
0.0
  0
LINE
  5
153
330
1F
100
AcDbEntity
  8
0
  6
Continuous
 62
     7
370
    25
100
AcDbLine
 10
357.6105938204
 20
531.8824217906
 30
0.0
 11
357.6105938204
 21
563.8824217906
 31
0.0
  0
LINE
  5
154
330
1F
100
AcDbEntity
  8
0
  6
Continuous
 62
     7
370
    25
100
AcDbLine
 10
-87.3894061796
 20
563.8824217906
 30
0.0
 11
-87.3894061796
 21
531.8824217906
 31
0.0
  0
ARC
  5
155
330
1F
100
AcDbEntity
  8
0
  6
Continuous
 62
     7
370
    25
100
AcDbCircle
 10
-86.3894061796
 20
531.8824217906
 30
0.0
 40
1.0
100
AcDbArc
 50
180.0
 51
270.0
  0
ARC
  5
156
330
1F
100
AcDbEntity
  8
0
  6
Continuous
 62
     7
370
    25
100
AcDbCircle
 10
356.6105938204
 20
531.8824217906
 30
0.0
 40
1.0
100
AcDbArc
 50
270.0
 51
0.0
  0
ARC
  5
157
330
1F
100
AcDbEntity
  8
0
  6
Continuous
 62
     7
370
    25
100
AcDbCircle
 10
-86.3894061796
 20
563.8824217906
 30
0.0
 40
1.0
100
AcDbArc
 50
90.0
 51
180.0
  0
ARC
  5
158
330
1F
100
AcDbEntity
  8
0
  6
Continuous
 62
     7
370
    25
100
AcDbCircle
 10
356.6105938204
 20
563.8824217906
 30
0.0
 40
1.0
100
AcDbArc
 50
0.0
 51
90.0
  0
LINE
  5
159
330
1F
100
AcDbEntity
  8
0
  6
Continuous
 62
     7
370
    25
100
AcDbLine
 10
356.6105938204
 20
530.8824217906
 30
0.0
 11
-86.3894061796
 21
530.8824217906
 31
0.0
  0
LINE
  5
15A
330
1F
100
AcDbEntity
  8
0
  6
Continuous
 62
     7
370
    25
100
AcDbLine
 10
-86.3894061796
 20
564.8824217906
 30
0.0
 11
356.6105938204
 21
564.8824217906
 31
0.0
  0
LINE
  5
15B
330
1F
100
AcDbEntity
  8
0
  6
Continuous
 62
     1
370
    25
100
AcDbLine
 10
357.6105938204
 20
563.8824217906
 30
0.0
 11
-87.3894061796
 21
563.8824217906
 31
0.0
  0
LINE
  5
15C
330
1F
100
AcDbEntity
  8
0
  6
Continuous
 62
     1
370
    25
100
AcDbLine
 10
-87.3894061796
 20
531.8824217906
 30
0.0
 11
357.6105938204
 21
531.8824217906
 31
0.0
  0
LINE
  5
15D
330
1F
100
AcDbEntity
  8
0
  6
Continuous
 62
     7
370
    25
100
AcDbLine
 10
-87.3894061796
 20
-308.9347778459
 30
0.0
 11
-87.3894061796
 21
-340.9347778459
 31
0.0
  0
LINE
  5
15E
330
1F
100
AcDbEntity
  8
0
  6
Continuous
 62
     7
370
    25
100
AcDbLine
 10
357.6105938204
 20
-340.9347778459
 30
0.0
 11
357.6105938204
 21
-308.9347778459
 31
0.0
  0
ARC
  5
15F
330
1F
100
AcDbEntity
  8
0
  6
Continuous
 62
     7
370
    25
100
AcDbCircle
 10
356.6105938204
 20
-308.9347778459
 30
0.0
 40
1.0
100
AcDbArc
 50
0.0
 51
90.0
  0
ARC
  5
160
330
1F
100
AcDbEntity
  8
0
  6
Continuous
 62
     7
370
    25
100
AcDbCircle
 10
-86.3894061796
 20
-308.9347778459
 30
0.0
 40
1.0
100
AcDbArc
 50
90.0
 51
180.0
  0
ARC
  5
161
330
1F
100
AcDbEntity
  8
0
  6
Continuous
 62
     7
370
    25
100
AcDbCircle
 10
356.6105938204
 20
-340.9347778459
 30
0.0
 40
1.0
100
AcDbArc
 50
270.0
 51
0.0
  0
ARC
  5
162
330
1F
100
AcDbEntity
  8
0
  6
Continuous
 62
     7
370
    25
100
AcDbCircle
 10
-86.3894061796
 20
-340.9347778459
 30
0.0
 40
1.0
100
AcDbArc
 50
180.0
 51
270.0
  0
LINE
  5
163
330
1F
100
AcDbEntity
  8
0
  6
Continuous
 62
     7
370
    25
100
AcDbLine
 10
-86.3894061796
 20
-307.9347778459
 30
0.0
 11
356.6105938204
 21
-307.9347778459
 31
0.0
  0
LINE
  5
164
330
1F
100
AcDbEntity
  8
0
  6
Continuous
 62
     7
370
    25
100
AcDbLine
 10
356.6105938204
 20
-341.9347778459
 30
0.0
 11
-86.3894061796
 21
-341.9347778459
 31
0.0
  0
LINE
  5
165
330
1F
100
AcDbEntity
  8
0
  6
Continuous
 62
     1
370
    25
100
AcDbLine
 10
-87.3894061796
 20
-340.9347778459
 30
0.0
 11
357.6105938204
 21
-340.9347778459
 31
0.0
  0
LINE
  5
166
330
1F
100
AcDbEntity
  8
0
  6
Continuous
 62
     1
370
    25
100
AcDbLine
 10
357.6105938204
 20
-308.9347778459
 30
0.0
 11
-87.3894061796
 21
-308.9347778459
 31
0.0
  0
SPLINE
  5
167
330
1F
100
AcDbEntity
  8
0
  6
Continuous
 62
     7
370
    25
100
AcDbSpline
210
0.0
220
0.0
230
1.0
 70
     8
 71
     3
 72
    77
 73
    73
 74
     0
 42
0.00000001
 43
0.00000001
 40
0.0
 40
0.0
 40
0.0
 40
0.0
 40
0.0105707835338419
 40
0.024933804012742
 40
0.0393034627668335
 40
0.0536793074978788
 40
0.0680607144734603
 40
0.0824469612559521
 40
0.0968372887737568
 40
0.1112309496523731
 40
0.1256272424129123
 40
0.1400255329250533
 40
0.1544252654221229
 40
0.1688259656472103
 40
0.1832272385356533
 40
0.197628762456129
 40
0.2120302166782936
 40
0.226431412882737
 40
0.2408322164499612
 40
0.2552325314872779
 40
0.2696322940130751
 40
0.2840314660204666
 40
0.2984300304112683
 40
0.3128279867434848
 40
0.3272253477105401
 40
0.3416221362609596
 40
0.3560183832674073
 40
0.3704141256595166
 40
0.3848094049434526
 40
0.3992042660405655
 40
0.4135987563869498
 40
0.427992925244473
 40
0.4423868231816608
 40
0.4567805016896457
 40
0.4711740129039605
 40
0.4855674094076806
 40
0.4999607440950681
 40
0.5143540700776612
 40
0.5287474317386175
 40
0.5431408735673648
 40
0.5575344489827478
 40
0.5719282113920161
 40
0.5863222140943011
 40
0.6007165101417734
 40
0.6151111521390775
 40
0.6295061919597956
 40
0.6439016803548409
 40
0.6582976664229299
 40
0.6726941969073782
 40
0.6870913152765107
 40
0.701489060536845
 40
0.7158874657191261
 40
0.7302865559674477
 40
0.7446863461517943
 40
0.7590868379153258
 40
0.7734880160615603
 40
0.7878898441857206
 40
0.802292259463434
 40
0.816695166534178
 40
0.8310984304648795
 40
0.845501861479691
 40
0.8599051359502697
 40
0.874307927502321
 40
0.8887098340638828
 40
0.9031103716067491
 40
0.9175089713099454
 40
0.9319049821947294
 40
0.9462976816955426
 40
0.9606862968196396
 40
0.9750700383081335
 40
0.9894481492978534
 40
1.0
 40
1.0
 40
1.0
 40
1.0
 10
737.3286165788003
 20
-253.9360796510581
 30
0.0
 10
736.0626371281751
 20
-253.8241301837659
 30
0.0
 10
733.0765118892095
 20
-253.5600697129543
 30
0.0
 10
728.2456940467117
 20
-253.4817103436559
 30
0.0
 10
722.8643931991015
 20
-253.6480722283976
 30
0.0
 10
717.3879094402379
 20
-254.1133500458804
 30
0.0
 10
711.8288674542704
 20
-254.8644270045916
 30
0.0
 10
706.1940222326004
 20
-255.903643961584
 30
0.0
 10
700.4918565461148
 20
-257.2286311910983
 30
0.0
 10
694.7305129915432
 20
-258.8377220746078
 30
0.0
 10
688.9183209283498
 20
-260.7285121935506
 30
0.0
 10
683.0636316853263
 20
-262.8982583615995
 30
0.0
 10
677.1748428582432
 20
-265.3437854164016
 30
0.0
 10
671.2603749710574
 20
-268.061525005942
 30
0.0
 10
665.3286632040925
 20
-271.0475185083141
 30
0.0
 10
659.388155570167
 20
-274.2974239643146
 30
0.0
 10
653.4472934686719
 20
-277.8065287166046
 30
0.0
 10
647.5145017449385
 20
-281.5697591648754
 30
0.0
 10
641.5981710712257
 20
-285.5816960848154
 30
0.0
 10
635.7066594294214
 20
-289.8365771305185
 30
0.0
 10
629.848283638812
 20
-294.3283043909427
 30
0.0
 10
624.031309587513
 20
-299.0504527220503
 30
0.0
 10
618.2639421997371
 20
-303.9962783482946
 30
0.0
 10
612.5543151761212
 20
-309.1587278055588
 30
0.0
 10
606.9104805554668
 20
-314.5304472743265
 30
0.0
 10
601.340398150312
 20
-320.1037923341884
 30
0.0
 10
595.8519249091863
 20
-325.8708381561066
 30
0.0
 10
590.4528042563727
 20
-331.8233901375367
 30
0.0
 10
585.1506554567089
 20
-337.952994976819
 30
0.0
 10
579.9529630490945
 20
-344.2509521767889
 30
0.0
 10
574.8670663883986
 20
-350.708325962792
 30
0.0
 10
569.9001493316694
 20
-357.3159575968365
 30
0.0
 10
565.0592301010507
 20
-364.0644780671525
 30
0.0
 10
560.3511513527033
 20
-370.944321130661
 30
0.0
 10
555.7825704782967
 20
-377.94573668459
 30
0.0
 10
551.3599501632668
 20
-385.0588044425816
 30
0.0
 10
547.0895492240702
 20
-392.2734478897665
 30
0.0
 10
542.9774145900925
 20
-399.5794469891092
 30
0.0
 10
539.0293725723648
 20
-406.966452525572
 30
0.0
 10
535.251019668256
 20
-414.4240022266541
 30
0.0
 10
531.6477139897432
 20
-421.9415371909225
 30
0.0
 10
528.2245679619164
 20
-429.5084169333971
 30
0.0
 10
524.9864420281747
 20
-437.113932937854
 30
0.0
 10
521.9379379387307
 20
-444.7473238125492
 30
0.0
 10
519.0833924453835
 20
-452.3977905007313
 30
0.0
 10
516.42687141335
 20
-460.0545115127967
 30
0.0
 10
513.9721643590449
 20
-467.7066581455787
 30
0.0
 10
511.7227794206093
 20
-475.3434096522811
 30
0.0
 10
509.6819387652963
 20
-482.9539683243698
 30
0.0
 10
507.8525744343937
 20
-490.5275744443308
 30
0.0
 10
506.2373246219393
 20
-498.0535210656641
 30
0.0
 10
504.8385303778281
 20
-505.5211685739903
 30
0.0
 10
503.6582327186628
 20
-512.919958980949
 30
0.0
 10
502.6981701206014
 20
-520.2394299010658
 30
0.0
 10
501.9597763570156
 20
-527.4692281617293
 30
0.0
 10
501.4441786302253
 20
-534.5991229981811
 30
0.0
 10
501.1521959291055
 20
-541.6190187923711
 30
0.0
 10
501.0843375294455
 20
-548.518967320591
 30
0.0
 10
501.2408015193429
 20
-555.2891795108908
 30
0.0
 10
501.6214732001372
 20
-561.9200355402511
 30
0.0
 10
502.2259218934993
 20
-568.4020842507963
 30
0.0
 10
503.053397892728
 20
-574.7260640281596
 30
0.0
 10
504.1028279381303
 20
-580.8829162736088
 30
0.0
 10
505.3728193243495
 20
-586.8638004189019
 30
0.0
 10
506.8616359193651
 20
-592.6601190792878
 30
0.0
 10
508.5672645545505
 20
-598.2634442068917
 30
0.0
 10
510.4871459337849
 20
-603.6658550142483
 30
0.0
 10
512.6191575278249
 20
-608.8587481649639
 30
0.0
 10
514.9579291949469
 20
-613.837358388634
 30
0.0
 10
517.5085780493631
 20
-618.5839889297915
 30
0.0
 10
519.9939833833947
 20
-622.7280101884027
 30
0.0
 10
521.7165420521636
 20
-625.1804626994735
 30
0.0
 10
522.4456318968732
 20
-626.2184872688963
 30
0.0
  0
LINE
  5
168
330
1F
100
AcDbEntity
  8
0
  6
Continuous
 62
     7
370
    25
100
AcDbLine
 10
792.6098773292
 20
-277.0941895538
 30
0.0
 11
769.9824603313
 21
-264.0316597646
 31
0.0
  0
LINE
  5
169
330
1F
100
AcDbEntity
  8
0
  6
Continuous
 62
     7
370
    25
100
AcDbLine
 10
547.5005423197
 20
-649.423403524
 30
0.0
 11
570.1279593177
 21
-662.4859333132
 31
0.0
  0
SPLINE
  5
16A
330
1F
100
AcDbEntity
  8
0
  6
Continuous
 62
     7
370
    25
100
AcDbSpline
210
0.0
220
0.0
230
1.0
 70
     8
 71
     3
 72
    64
 73
    60
 74
     0
 42
0.00000001
 43
0.00000001
 40
0.0
 40
0.0
 40
0.0
 40
0.0
 40
0.003946160378884
 40
0.0219705244896368
 40
0.0400033435885022
 40
0.0580441418977697
 40
0.0760921967782425
 40
0.0941466328603217
 40
0.1122065049702446
 40
0.1302708646585999
 40
0.1483388088492688
 40
0.1664095117426365
 40
0.1844822425951788
 40
0.2025563725648452
 40
0.2206313737503375
 40
0.2387068131380567
 40
0.2567822893854568
 40
0.2748575095703738
 40
0.2929322866991363
 40
0.3110064854294498
 40
0.3290800131638503
 40
0.3471528122333952
 40
0.3652248531856565
 40
0.3832961291218928
 40
0.4013666509884241
 40
0.4194364437100375
 40
0.4375055430499095
 40
0.4555739930859375
 40
0.473641844202968
 40
0.4917091515121202
 40
0.5097759736203072
 40
0.5278423716844464
 40
0.5459084086950138
 40
0.5639741489426502
 40
0.5820396576289334
 40
0.6001050005888336
 40
0.6181702440972465
 40
0.6362354547359212
 40
0.6543006954831877
 40
0.6723660148153535
 40
0.690431479763453
 40
0.7084971573758683
 40
0.7265631146096484
 40
0.7446294181765367
 40
0.762696134319466
 40
0.7807633284941335
 40
0.7988310649259225
 40
0.8168994060067665
 40
0.8349684114896869
 40
0.8530381374304234
 40
0.8711086348158609
 40
0.8891799478078969
 40
0.9072521115193279
 40
0.9253251492257906
 40
0.9433990689059178
 40
0.9614738589926864
 40
0.9795494832151027
 40
0.996674399945195
 40
0.9999999999999999
 40
0.9999999999999999
 40
0.9999999999999999
 40
0.9999999999999999
 10
603.7533776057791
 20
-672.6686818401815
 30
0.0
 10
604.1280685655026
 20
-672.7067640048548
 30
0.0
 10
606.2141867452664
 20
-672.918789125792
 30
0.0
 10
610.1189939888154
 20
-673.0208957780744
 30
0.0
 10
615.4641476840709
 20
-672.9611324097917
 30
0.0
 10
620.912599687008
 20
-672.5877659613506
 30
0.0
 10
626.4447289601875
 20
-671.9322757136227
 30
0.0
 10
632.0557142786839
 20
-670.9872107329861
 30
0.0
 10
637.7366014975371
 20
-669.7561250768797
 30
0.0
 10
643.4794116274272
 20
-668.2401847851143
 30
0.0
 10
649.2758000885734
 20
-666.4417491635944
 30
0.0
 10
655.1174409556419
 20
-664.3633985570002
 30
0.0
 10
660.9959449830725
 20
-662.0081814070198
 30
0.0
 10
666.9028993259752
 20
-659.3795341681504
 30
0.0
 10
672.8298720932106
 20
-656.481289257063
 30
0.0
 10
678.768418590744
 20
-653.3176632426249
 30
0.0
 10
684.7100939077666
 20
-649.8932481262966
 30
0.0
 10
690.646466797607
 20
-646.2129997849713
 30
0.0
 10
696.5691343386396
 20
-642.2822248602304
 30
0.0
 10
702.4697270993764
 20
-638.1065735677803
 30
0.0
 10
708.3399136608703
 20
-633.6920343849886
 30
0.0
 10
714.1714102927062
 20
-629.044925787286
 30
0.0
 10
719.9559909021481
 20
-624.1718877447925
 30
0.0
 10
725.6854972241946
 20
-619.0798728979132
 30
0.0
 10
731.3518492067793
 20
-613.7761373567589
 30
0.0
 10
736.9470555395877
 20
-608.2682310876351
 30
0.0
 10
742.463224273436
 20
-602.5639878657797
 30
0.0
 10
747.8925734785356
 20
-596.6715147858467
 30
0.0
 10
753.2274418929385
 20
-590.5991813311232
 30
0.0
 10
758.4602995161961
 20
-584.3556080096251
 30
0.0
 10
763.583758107238
 20
-577.9496545704808
 30
0.0
 10
768.5905815493514
 20
-571.3904078178547
 30
0.0
 10
773.4736960487483
 20
-564.6871690424225
 30
0.0
 10
778.2262001364401
 20
-557.8494410923824
 30
0.0
 10
782.8413744460031
 20
-550.8869151073815
 30
0.0
 10
787.3126912422839
 20
-543.8094569397787
 30
0.0
 10
791.6338236782493
 20
-536.6270932884024
 30
0.0
 10
795.7986544656741
 20
-529.3499980831804
 30
0.0
 10
799.8012835084347
 20
-521.9884801433707
 30
0.0
 10
803.6360378511594
 20
-514.5529662002508
 30
0.0
 10
807.2974799257777
 20
-507.0539855452137
 30
0.0
 10
810.7804159825411
 20
-499.5021529953482
 30
0.0
 10
814.0799019597251
 20
-491.908156365224
 30
0.0
 10
817.1912503261925
 20
-484.2827413361612
 30
0.0
 10
820.1100365211188
 20
-476.6366962603108
 30
0.0
 10
822.8321049818593
 20
-468.9808369310029
 30
0.0
 10
825.3535747415302
 20
-461.3259913586775
 30
0.0
 10
827.6708446221552
 20
-453.6829845679462
 30
0.0
 10
829.7805978936389
 20
-446.0626235294386
 30
0.0
 10
831.679806861984
 20
-438.4756819840966
 30
0.0
 10
833.3657356522182
 20
-430.932886257519
 30
0.0
 10
834.8359476752646
 20
-423.4448981728171
 30
0.0
 10
836.088293600632
 20
-416.0223098031742
 30
0.0
 10
837.1209701502331
 20
-408.6755952727056
 30
0.0
 10
837.9323127451382
 20
-401.4152243391151
 30
0.0
 10
838.5215798482171
 20
-394.2511738629707
 30
0.0
 10
838.8796397721474
 20
-387.3185030052694
 30
0.0
 10
838.9873167306728
 20
-382.3838090246679
 30
0.0
 10
838.992265588309
 20
-379.7940084434125
 30
0.0
 10
838.993070356296
 20
-379.3728630491153
 30
0.0
  0
SPLINE
  5
16B
330
1F
100
AcDbEntity
  8
0
  6
Continuous
 62
     7
370
    25
100
AcDbSpline
210
0.0
220
0.0
230
1.0
 70
     8
 71
     3
 72
    22
 73
    18
 74
     0
 42
0.00000001
 43
0.00000001
 40
0.0
 40
0.0
 40
0.0
 40
0.0
 40
0.0379040926286489
 40
0.1099075937723737
 40
0.181916206393485
 40
0.2539251556573726
 40
0.3259328251480545
 40
0.3979374628792036
 40
0.4699369267839195
 40
0.5419286580588788
 40
0.6139096747305666
 40
0.6858765964383893
 40
0.75782571323081
 40
0.829753111536738
 40
0.9016548683045857
 40
0.9735273183731769
 40
1.0
 40
1.0
 40
1.0
 40
1.0
 10
838.993070356296
 20
-379.3728630491153
 30
0.0
 10
838.9868182472613
 20
-378.1726729746491
 30
0.0
 10
838.9686894856328
 20
-374.6925737556438
 30
0.0
 10
838.7672692112383
 20
-369.033111934237
 30
0.0
 10
838.3153587098158
 20
-362.4489299202402
 30
0.0
 10
837.6368313326825
 20
-356.018204499426
 30
0.0
 10
836.7364090367187
 20
-349.748096754754
 30
0.0
 10
835.6142378016322
 20
-343.6481670976358
 30
0.0
 10
834.2720920430356
 20
-337.7270330064214
 30
0.0
 10
832.711753384831
 20
-331.9932431659499
 30
0.0
 10
830.9353252493651
 20
-326.4551829645763
 30
0.0
 10
828.9456232275892
 20
-321.1205044972344
 30
0.0
 10
826.7443257230992
 20
-315.9984086089485
 30
0.0
 10
824.3389992293888
 20
-311.0909842319663
 30
0.0
 10
821.7168677124598
 20
-306.4254334557272
 30
0.0
 10
819.5263726877622
 20
-302.8788514144971
 30
0.0
 10
818.1435782036566
 20
-300.9729245450924
 30
0.0
 10
817.771355628914
 20
-300.4598844550753
 30
0.0
  0
SPLINE
  5
16C
330
1F
100
AcDbEntity
  8
0
  6
Continuous
 62
     7
370
    25
100
AcDbSpline
210
0.0
220
0.0
230
1.0
 70
     8
 71
     3
 72
    20
 73
    16
 74
     0
 42
0.00000001
 43
0.00000001
 40
0.0
 40
0.0
 40
0.0
 40
0.0
 40
0.0335803083878018
 40
0.1149132400525937
 40
0.19618770858253
 40
0.2774087451006277
 40
0.3585831707091272
 40
0.4397186141573075
 40
0.5208227522295336
 40
0.6019027898140047
 40
0.6829651526873911
 40
0.7640153465858281
 40
0.8450579333758094
 40
0.9260965814096785
 40
1.0
 40
1.0
 40
1.0
 40
1.0
 10
761.4650785218524
 20
-327.0734630491492
 30
0.0
 10
761.8294701509636
 20
-327.562007208648
 30
0.0
 10
763.0764337662359
 20
-329.233826050466
 30
0.0
 10
765.0047141306733
 20
-332.3431051272387
 30
0.0
 10
767.2479406393868
 20
-336.3860178844961
 30
0.0
 10
769.2774301367083
 20
-340.6678007061254
 30
0.0
 10
771.1042399138574
 20
-345.161685457661
 30
0.0
 10
772.7211851523977
 20
-349.8644936740912
 30
0.0
 10
774.1263577364214
 20
-354.766300889487
 30
0.0
 10
775.3169832544614
 20
-359.8584601455803
 30
0.0
 10
776.2905215164631
 20
-365.131774690969
 30
0.0
 10
777.0464642909178
 20
-370.5757806490163
 30
0.0
 10
777.5781257097018
 20
-376.1834708494875
 30
0.0
 10
777.8942065144607
 20
-381.7644629947797
 30
0.0
 10
777.9317478612003
 20
-385.5345883769944
 30
0.0
 10
777.9496541272194
 20
-387.3328421393867
 30
0.0
  0
SPLINE
  5
16D
330
1F
100
AcDbEntity
  8
0
  6
Continuous
 62
     7
370
    25
100
AcDbSpline
210
0.0
220
0.0
230
1.0
 70
     8
 71
     3
 72
    57
 73
    53
 74
     0
 42
0.00000001
 43
0.00000001
 40
0.0
 40
0.0
 40
0.0
 40
0.0
 40
0.0108299757357948
 40
0.0314230138822243
 40
0.0520181465608415
 40
0.0726142696397026
 40
0.0932115587463179
 40
0.1138101138833084
 40
0.1344099758234585
 40
0.155011139693065
 40
0.1756135658855557
 40
0.1962171887037474
 40
0.2168219231133074
 40
0.2374276699527302
 40
0.2580343198993027
 40
0.2786417564442266
 40
0.2992498580870067
 40
0.3198584999216234
 40
0.3404675547552189
 40
0.3610768938743044
 40
0.381686387553092
 40
0.4022959053832684
 40
0.4229052808638216
 40
0.443514374922331
 40
0.4641230564041894
 40
0.4847311944067165
 40
0.5053386587227765
 40
0.5259453205186352
 40
0.5465510533353299
 40
0.5671557345231415
 40
0.5877592472434165
 40
0.608361483202437
 40
0.6289623463188841
 40
0.6495617575688911
 40
0.6701596612998892
 40
0.6907560333528295
 40
0.7113508913757487
 40
0.7319443077390346
 40
0.7525364254557119
 40
0.7731274774397634
 40
0.7937178092592372
 40
0.8143078835021752
 40
0.834898138266547
 40
0.8554893542163823
 40
0.8760825275843068
 40
0.8966788931572038
 40
0.9172799354379517
 40
0.9378873789514234
 40
0.9585031463075121
 40
0.9791292713640833
 40
0.9997677561824371
 40
1.0
 40
1.0
 40
1.0
 40
1.0
 10
777.9496541272194
 20
-387.3328421393867
 30
0.0
 10
777.9434709888824
 20
-388.379407959668
 30
0.0
 10
777.9255307047546
 20
-391.4160031563371
 30
0.0
 10
777.726078726225
 20
-396.5389154038475
 30
0.0
 10
777.278453500366
 20
-402.7296623064458
 30
0.0
 10
776.6065353210074
 20
-409.0238196363147
 30
0.0
 10
775.7153031666136
 20
-415.4071699687941
 30
0.0
 10
774.6053008411026
 20
-421.8683742607062
 30
0.0
 10
773.2787893640068
 20
-428.3951545231268
 30
0.0
 10
771.7380970458847
 20
-434.9753121829235
 30
0.0
 10
769.9860561654218
 20
-441.5964873154605
 30
0.0
 10
768.0258791622731
 20
-448.2462550036259
 30
0.0
 10
765.8611838467898
 20
-454.9121310535189
 30
0.0
 10
763.4959776173839
 20
-461.5816017020617
 30
0.0
 10
760.9346516951081
 20
-468.2421466055955
 30
0.0
 10
758.1819717775564
 20
-474.8812633462823
 30
0.0
 10
755.24306881172
 20
-481.4864912520132
 30
0.0
 10
752.1234289388635
 20
-488.0454351179868
 30
0.0
 10
748.8288829016634
 20
-494.545788664098
 30
0.0
 10
745.3655948667206
 20
-500.9753577591817
 30
0.0
 10
741.7400507025909
 20
-507.3220833852431
 30
0.0
 10
737.9590479051434
 20
-513.5740607260021
 30
0.0
 10
734.0296815449447
 20
-519.7195646505465
 30
0.0
 10
729.959330518076
 20
-525.7470727540563
 30
0.0
 10
725.7556412016221
 20
-531.6452904785355
 30
0.0
 10
721.4265148234377
 20
-537.4031696250394
 30
0.0
 10
716.9800932941255
 20
-543.0099285698723
 30
0.0
 10
712.4247440855697
 20
-548.455072872189
 30
0.0
 10
707.7690446665475
 20
-553.7284154612552
 30
0.0
 10
703.0217664955163
 20
-558.8200963823124
 30
0.0
 10
698.1918585640607
 20
-563.7206020795394
 30
0.0
 10
693.2884304761452
 20
-568.4207841927973
 30
0.0
 10
688.3207350380866
 20
-572.9118778409727
 30
0.0
 10
683.2981503219918
 20
-577.1855193576471
 30
0.0
 10
678.230161151345
 20
-581.2337634337132
 30
0.0
 10
673.1263399430277
 20
-585.0490996024362
 30
0.0
 10
667.9963268233109
 20
-588.6244679816252
 30
0.0
 10
662.849808931745
 20
-591.9532741309383
 30
0.0
 10
657.6964987924277
 20
-595.0294029057042
 30
0.0
 10
652.5461117535397
 20
-597.8472308484972
 30
0.0
 10
647.4083439155869
 20
-600.4016367066547
 30
0.0
 10
642.2928640257228
 20
-602.6880018553721
 30
0.0
 10
637.2092723586331
 20
-604.7022335863187
 30
0.0
 10
632.1670834060043
 20
-606.4407442418845
 30
0.0
 10
627.1756442331841
 20
-607.9005528605567
 30
0.0
 10
622.2442701935605
 20
-609.0789109492636
 30
0.0
 10
617.3816638374269
 20
-609.9746538287889
 30
0.0
 10
612.5979728111957
 20
-610.583108707391
 30
0.0
 10
607.8970142658
 20
-610.9150391750413
 30
0.0
 10
603.3052520686393
 20
-610.9258123677362
 30
0.0
 10
600.261407575427
 20
-610.8280002835343
 30
0.0
 10
598.7837692025936
 20
-610.6475164478624
 30
0.0
 10
598.7673264428475
 20
-610.6455080726046
 30
0.0
  0
SPLINE
  5
16E
330
1F
100
AcDbEntity
  8
0
  6
Continuous
 62
     7
370
    25
100
AcDbSpline
210
0.0
220
0.0
230
1.0
 70
     8
 71
     3
 72
    70
 73
    66
 74
     0
 42
0.00000001
 43
0.00000001
 40
0.0
 40
0.0
 40
0.0
 40
0.0
 40
0.0124963713510082
 40
0.0286704287093782
 40
0.0448326754821876
 40
0.0609839723658363
 40
0.0771255968440483
 40
0.0932590378618948
 40
0.1093858314947951
 40
0.125507444444472
 40
0.1416252019098672
 40
0.1577402512824185
 40
0.1738535517991669
 40
0.1899658811629907
 40
0.2060778519584772
 40
0.2221898210964722
 40
0.238302143204277
 40
0.2544150957827289
 40
0.2705288685577988
 40
0.2866435809671065
 40
0.3027592970143847
 40
0.3188760375807929
 40
0.3349937904336746
 40
0.3511125182339148
 40
0.3672321648526423
 40
0.3833526602895678
 40
0.399473924453345
 40
0.4155958700279387
 40
0.4317184046132652
 40
0.4478414322957344
 40
0.4639648547762075
 40
0.4800885721593574
 40
0.4962124834895011
 40
0.5123364871031868
 40
0.5284604774917903
 40
0.5445843214655434
 40
0.5607079164140748
 40
0.5768311597566753
 40
0.5929539491918083
 40
0.6090761830899641
 40
0.6251977610873931
 40
0.641318584955408
 40
0.6574385598358613
 40
0.6735575959541452
 40
0.6896756109460942
 40
0.7057925329654285
 40
0.7219083047727033
 40
0.7380228890443096
 40
0.7541362751773815
 40
0.7702484878980776
 40
0.7863595979962174
 40
0.8024697354925399
 40
0.8185791054705766
 40
0.8346880066358432
 40
0.8507967885688706
 40
0.8669058676425988
 40
0.8830158998927815
 40
0.8991277156691058
 40
0.9152423356137007
 40
0.9313609756061515
 40
0.9474850330550272
 40
0.9636160452177641
 40
0.9797556096744617
 40
0.9959052589813383
 40
1.0
 40
1.0
 40
1.0
 40
1.0
 10
580.3492193272594
 20
-601.7113441185377
 30
0.0
 10
579.6506967035853
 20
-600.8184616604016
 30
0.0
 10
578.0480760290386
 20
-598.7699211566991
 30
0.0
 10
575.766173614372
 20
-595.2773763203594
 30
0.0
 10
573.4712280943735
 20
-591.293272875775
 30
0.0
 10
571.3833395962533
 20
-587.0751546716991
 30
0.0
 10
569.4986508369465
 20
-582.6408075573618
 30
0.0
 10
567.8225460030978
 20
-577.9956869334069
 30
0.0
 10
566.3575098348529
 20
-573.1489944962746
 30
0.0
 10
565.1063766153256
 20
-568.109386580991
 30
0.0
 10
564.0714500042002
 20
-562.8861290524882
 30
0.0
 10
563.2547230951628
 20
-557.4887858302484
 30
0.0
 10
562.6578018340235
 20
-551.9272920137348
 30
0.0
 10
562.2819083131028
 20
-546.2119170080375
 30
0.0
 10
562.1278650150068
 20
-540.3532651206078
 30
0.0
 10
562.1960840497193
 20
-534.3622390879368
 30
0.0
 10
562.4865603357423
 20
-528.2500133547687
 30
0.0
 10
562.9988699293493
 20
-522.0279945539361
 30
0.0
 10
563.7321684514571
 20
-515.7078112371266
 30
0.0
 10
564.6851902888109
 20
-509.3012920347905
 30
0.0
 10
565.8562495498802
 20
-502.8204399454861
 30
0.0
 10
567.2432425107604
 20
-496.2774067045466
 30
0.0
 10
568.8436513466143
 20
-489.6844673306371
 30
0.0
 10
570.6545489819412
 20
-483.0539948943282
 30
0.0
 10
572.6726049249145
 20
-476.3984355246418
 30
0.0
 10
574.8940919799803
 20
-469.7302836537705
 30
0.0
 10
577.3148937564847
 20
-463.06205749392
 30
0.0
 10
579.9305129097396
 20
-456.4062747394761
 30
0.0
 10
582.7360800651071
 20
-449.7754284901642
 30
0.0
 10
585.7263633861345
 20
-443.1819633948904
 30
0.0
 10
588.8957787552649
 20
-436.6382520204806
 30
0.0
 10
592.2384005408417
 20
-430.1565714539786
 30
0.0
 10
595.7479729277277
 20
-423.7490801509884
 30
0.0
 10
599.417921535542
 20
-417.4277954861253
 30
0.0
 10
603.2413635960851
 20
-411.2045746251888
 30
0.0
 10
607.2111228760928
 20
-405.0910879374964
 30
0.0
 10
611.3197434533554
 20
-399.0987964834782
 30
0.0
 10
615.5595062106435
 20
-393.2389271388823
 30
0.0
 10
619.9224407543601
 20
-387.5224552655674
 30
0.0
 10
624.4003402142245
 20
-381.9600838155754
 30
0.0
 10
628.9847764896906
 20
-376.5622228394046
 30
0.0
 10
633.6671159385643
 20
-371.3389694207417
 30
0.0
 10
638.4385355095594
 20
-366.3000880585046
 30
0.0
 10
643.2900393274441
 20
-361.4549915180957
 30
0.0
 10
648.2124757483153
 20
-356.8127221760108
 30
0.0
 10
653.1965549133165
 20
-352.3819338865981
 30
0.0
 10
658.2328668418237
 20
-348.1708744079156
 30
0.0
 10
663.311900119523
 20
-344.1873684364343
 30
0.0
 10
668.4240612514669
 20
-340.4388013210993
 30
0.0
 10
673.5596947657488
 20
-336.9321035526856
 30
0.0
 10
678.7091041581101
 20
-333.6737361777703
 30
0.0
 10
683.86257378954
 20
-330.6696772926817
 30
0.0
 10
689.0103917578483
 20
-327.9254100230349
 30
0.0
 10
694.142867232863
 20
-325.4459150787392
 30
0.0
 10
699.2503476429765
 20
-323.2356650382374
 30
0.0
 10
704.323255459326
 20
-321.2986068031982
 30
0.0
 10
709.3521139585189
 20
-319.6381731835626
 30
0.0
 10
714.3276072912275
 20
-318.2572193196572
 30
0.0
 10
719.2404970731164
 20
-317.1582707842324
 30
0.0
 10
724.0820197530273
 20
-316.3426426340242
 30
0.0
 10
728.8425099687228
 20
-315.8137815704267
 30
0.0
 10
733.5166249913765
 20
-315.5648599512674
 30
0.0
 10
738.0838830780374
 20
-315.6251958204006
 30
0.0
 10
741.4612861319082
 20
-315.8217675754564
 30
0.0
 10
743.2751311787389
 20
-316.0890805771152
 30
0.0
 10
743.6420093902001
 20
-316.1431487656411
 30
0.0
  0
SPLINE
  5
16F
330
1F
100
AcDbEntity
  8
0
  6
Continuous
 62
     7
370
    25
100
AcDbSpline
210
0.0
220
0.0
230
1.0
 70
     8
 71
     3
 72
    13
 73
     9
 74
     0
 42
0.00000001
 43
0.00000001
 40
0.0
 40
0.0
 40
0.0
 40
0.0
 40
0.0301718316562939
 40
0.2730495324891581
 40
0.4848307094694775
 40
0.7100393803269863
 40
0.9297739421878493
 40
1.0
 40
1.0
 40
1.0
 40
1.0
 10
786.8221031799009
 20
-458.2354973964457
 30
0.0
 10
786.8584897335745
 20
-458.2526260275669
 30
0.0
 10
787.1877813583806
 20
-458.4076369918697
 30
0.0
 10
787.6399629127386
 20
-458.9190737192846
 30
0.0
 10
788.1910644946142
 20
-459.8114301957268
 30
0.0
 10
788.5506794467482
 20
-460.9390342434515
 30
0.0
 10
788.689915114292
 20
-461.9833405027346
 30
0.0
 10
788.6990559936976
 20
-462.6247931742775
 30
0.0
 10
788.701269838896
 20
-462.7801476925784
 30
0.0
  0
SPLINE
  5
170
330
1F
100
AcDbEntity
  8
0
  6
Continuous
 62
     7
370
    25
100
AcDbSpline
210
0.0
220
0.0
230
1.0
 70
     8
 71
     3
 72
    22
 73
    18
 74
     0
 42
0.00000001
 43
0.00000001
 40
0.0
 40
0.0
 40
0.0
 40
0.0
 40
0.0362934660826161
 40
0.1059968498303411
 40
0.1759513347607115
 40
0.24612132268113
 40
0.3164540845392663
 40
0.3868645620045738
 40
0.4572511292761296
 40
0.5274906044540901
 40
0.5974864248553943
 40
0.6671576272454757
 40
0.7364816323994565
 40
0.8056017084958321
 40
0.8748537277511774
 40
0.9452202796698169
 40
1.0
 40
1.0
 40
1.0
 40
1.0
 10
788.701269838896
 20
-462.7801476925784
 30
0.0
 10
788.6956247930152
 20
-463.0377430742603
 30
0.0
 10
788.6791381593289
 20
-463.7900630352958
 30
0.0
 10
788.4923804093434
 20
-465.1368372837637
 30
0.0
 10
788.0715165751631
 20
-466.8076526801606
 30
0.0
 10
787.4473740933528
 20
-468.5086574717718
 30
0.0
 10
786.6395976187673
 20
-470.1860624443725
 30
0.0
 10
785.6700378928357
 20
-471.7903553144592
 30
0.0
 10
784.5679820337516
 20
-473.2731647356238
 30
0.0
 10
783.3676785200189
 20
-474.5905297857711
 30
0.0
 10
782.107800646777
 20
-475.7042798959679
 30
0.0
 10
780.8299163579205
 20
-476.5842844609571
 30
0.0
 10
779.5776385325502
 20
-477.2092344683455
 30
0.0
 10
778.3923559560609
 20
-477.5724169957436
 30
0.0
 10
777.3164236478093
 20
-477.6684700094459
 30
0.0
 10
776.4333862168851
 20
-477.5575661607484
 30
0.0
 10
775.9750645038487
 20
-477.3142122100271
 30
0.0
 10
775.7744453818386
 20
-477.2076899691149
 30
0.0
  0
SPLINE
  5
171
330
1F
100
AcDbEntity
  8
0
  6
Continuous
 62
     7
370
    25
100
AcDbSpline
210
0.0
220
0.0
230
1.0
 70
     8
 71
     3
 72
    13
 73
     9
 74
     0
 42
0.00000001
 43
0.00000001
 40
0.0
 40
0.0
 40
0.0
 40
0.0
 40
0.0301718316562309
 40
0.273049532489087
 40
0.4848307094693991
 40
0.7100393803269236
 40
0.9297739421877705
 40
1.0
 40
1.0
 40
1.0
 40
1.0
 10
735.0582941593879
 20
-547.8930443501217
 30
0.0
 10
735.0946807130614
 20
-547.910172981243
 30
0.0
 10
735.4239723378673
 20
-548.0651839455458
 30
0.0
 10
735.8761538922254
 20
-548.5766206729604
 30
0.0
 10
736.4272554741011
 20
-549.4689771494026
 30
0.0
 10
736.786870426235
 20
-550.5965811971273
 30
0.0
 10
736.9261060937789
 20
-551.6408874564103
 30
0.0
 10
736.9352469731845
 20
-552.2823401279534
 30
0.0
 10
736.937460818383
 20
-552.4376946462545
 30
0.0
  0
SPLINE
  5
172
330
1F
100
AcDbEntity
  8
0
  6
Continuous
 62
     7
370
    25
100
AcDbSpline
210
0.0
220
0.0
230
1.0
 70
     8
 71
     3
 72
    22
 73
    18
 74
     0
 42
0.00000001
 43
0.00000001
 40
0.0
 40
0.0
 40
0.0
 40
0.0
 40
0.0362934660826155
 40
0.1059968498303071
 40
0.1759513347606797
 40
0.2461213226811053
 40
0.3164540845392405
 40
0.3868645620045484
 40
0.4572511292761107
 40
0.5274906044540658
 40
0.5974864248553748
 40
0.6671576272454558
 40
0.7364816323994358
 40
0.8056017084958177
 40
0.8748537277511591
 40
0.9452202796698036
 40
1.0
 40
1.0
 40
1.0
 40
1.0
 10
736.937460818383
 20
-552.4376946462545
 30
0.0
 10
736.9318157725021
 20
-552.6952900279363
 30
0.0
 10
736.9153291388159
 20
-553.4476099889716
 30
0.0
 10
736.7285713888305
 20
-554.7943842374392
 30
0.0
 10
736.3077075546503
 20
-556.4651996338359
 30
0.0
 10
735.6835650728399
 20
-558.1662044254472
 30
0.0
 10
734.8757885982546
 20
-559.843609398048
 30
0.0
 10
733.906228872323
 20
-561.4479022681348
 30
0.0
 10
732.8041730132388
 20
-562.9307116892994
 30
0.0
 10
731.6038694995062
 20
-564.2480767394468
 30
0.0
 10
730.3439916262641
 20
-565.3618268496436
 30
0.0
 10
729.0661073374079
 20
-566.241831414633
 30
0.0
 10
727.8138295120374
 20
-566.8667814220213
 30
0.0
 10
726.6285469355481
 20
-567.2299639494196
 30
0.0
 10
725.5526146272964
 20
-567.3260169631219
 30
0.0
 10
724.6695771963721
 20
-567.2151131144244
 30
0.0
 10
724.2112554833355
 20
-566.9717591637032
 30
0.0
 10
724.0106363613255
 20
-566.8652369227909
 30
0.0
  0
SPLINE
  5
173
330
1F
100
AcDbEntity
  8
0
  6
Continuous
 62
     7
370
    25
100
AcDbSpline
210
0.0
220
0.0
230
1.0
 70
     8
 71
     3
 72
    13
 73
     9
 74
     0
 42
0.00000001
 43
0.00000001
 40
0.0
 40
0.0
 40
0.0
 40
0.0
 40
0.0301718316562261
 40
0.2730495324890767
 40
0.4848307094693652
 40
0.710039380326863
 40
0.9297739421877126
 40
1.0
 40
1.0
 40
1.0
 40
1.0
 10
805.7689722780591
 20
-365.6436214950054
 30
0.0
 10
805.8053588317326
 20
-365.6607501261266
 30
0.0
 10
806.1346504565388
 20
-365.8157610904294
 30
0.0
 10
806.5868320108966
 20
-366.3271978178441
 30
0.0
 10
807.1379335927725
 20
-367.2195542942861
 30
0.0
 10
807.4975485449063
 20
-368.3471583420106
 30
0.0
 10
807.6367842124504
 20
-369.3914646012938
 30
0.0
 10
807.6459250918558
 20
-370.0329172728369
 30
0.0
 10
807.6481389370542
 20
-370.1882717911382
 30
0.0
  0
SPLINE
  5
174
330
1F
100
AcDbEntity
  8
0
  6
Continuous
 62
     7
370
    25
100
AcDbSpline
210
0.0
220
0.0
230
1.0
 70
     8
 71
     3
 72
    22
 73
    18
 74
     0
 42
0.00000001
 43
0.00000001
 40
0.0
 40
0.0
 40
0.0
 40
0.0
 40
0.0362934660826162
 40
0.1059968498303193
 40
0.1759513347606919
 40
0.2461213226811131
 40
0.3164540845392531
 40
0.3868645620045579
 40
0.4572511292761137
 40
0.5274906044540744
 40
0.597486424855384
 40
0.6671576272454649
 40
0.7364816323994438
 40
0.8056017084958216
 40
0.8748537277511641
 40
0.9452202796698014
 40
1.0
 40
1.0
 40
1.0
 40
1.0
 10
807.6481389370542
 20
-370.1882717911382
 30
0.0
 10
807.6424938911734
 20
-370.44586717282
 30
0.0
 10
807.6260072574871
 20
-371.1981871338554
 30
0.0
 10
807.4392495075017
 20
-372.5449613823232
 30
0.0
 10
807.0183856733215
 20
-374.2157767787198
 30
0.0
 10
806.3942431915112
 20
-375.916781570331
 30
0.0
 10
805.5864667169258
 20
-377.5941865429319
 30
0.0
 10
804.6169069909943
 20
-379.1984794130187
 30
0.0
 10
803.5148511319102
 20
-380.6812888341832
 30
0.0
 10
802.3145476181776
 20
-381.9986538843305
 30
0.0
 10
801.0546697449355
 20
-383.1124039945274
 30
0.0
 10
799.7767854560791
 20
-383.9924085595167
 30
0.0
 10
798.5245076307087
 20
-384.6173585669051
 30
0.0
 10
797.3392250542195
 20
-384.9805410943032
 30
0.0
 10
796.2632927459679
 20
-385.0765941080056
 30
0.0
 10
795.3802553150435
 20
-384.965690259308
 30
0.0
 10
794.921933602007
 20
-384.7223363085869
 30
0.0
 10
794.721314479997
 20
-384.6158140676746
 30
0.0
  0
SPLINE
  5
175
330
1F
100
AcDbEntity
  8
0
  6
Continuous
 62
     7
370
    25
100
AcDbSpline
210
0.0
220
0.0
230
1.0
 70
     8
 71
     3
 72
    13
 73
     9
 74
     0
 42
0.00000001
 43
0.00000001
 40
0.0
 40
0.0
 40
0.0
 40
0.0
 40
0.0301718316561733
 40
0.2730495324890081
 40
0.4848307094693162
 40
0.7100393803268306
 40
0.9297739421876823
 40
1.0
 40
1.0
 40
1.0
 40
1.0
 10
664.3476160407254
 20
-610.5925950544405
 30
0.0
 10
664.3840025943989
 20
-610.6097236855617
 30
0.0
 10
664.7132942192047
 20
-610.7647346498645
 30
0.0
 10
665.1654757735627
 20
-611.276171377279
 30
0.0
 10
665.7165773554385
 20
-612.1685278537211
 30
0.0
 10
666.0761923075725
 20
-613.2961319014456
 30
0.0
 10
666.2154279751164
 20
-614.3404381607288
 30
0.0
 10
666.2245688545221
 20
-614.981890832272
 30
0.0
 10
666.2267826997205
 20
-615.1372453505734
 30
0.0
  0
SPLINE
  5
176
330
1F
100
AcDbEntity
  8
0
  6
Continuous
 62
     7
370
    25
100
AcDbSpline
210
0.0
220
0.0
230
1.0
 70
     8
 71
     3
 72
    22
 73
    18
 74
     0
 42
0.00000001
 43
0.00000001
 40
0.0
 40
0.0
 40
0.0
 40
0.0
 40
0.0362934660826155
 40
0.1059968498303125
 40
0.1759513347606854
 40
0.2461213226811105
 40
0.3164540845392432
 40
0.3868645620045519
 40
0.4572511292761155
 40
0.5274906044540723
 40
0.5974864248553832
 40
0.6671576272454589
 40
0.7364816323994335
 40
0.8056017084958111
 40
0.874853727751147
 40
0.945220279669794
 40
1.0
 40
1.0
 40
1.0
 40
1.0
 10
666.2267826997205
 20
-615.1372453505734
 30
0.0
 10
666.2211376538397
 20
-615.3948407322551
 30
0.0
 10
666.2046510201534
 20
-616.1471606932906
 30
0.0
 10
666.0178932701679
 20
-617.4939349417582
 30
0.0
 10
665.5970294359878
 20
-619.1647503381549
 30
0.0
 10
664.9728869541774
 20
-620.8657551297662
 30
0.0
 10
664.1651104795922
 20
-622.543160102367
 30
0.0
 10
663.1955507536605
 20
-624.1474529724537
 30
0.0
 10
662.0934948945763
 20
-625.6302623936184
 30
0.0
 10
660.8931913808436
 20
-626.9476274437658
 30
0.0
 10
659.6333135076017
 20
-628.0613775539626
 30
0.0
 10
658.3554292187454
 20
-628.9413821189518
 30
0.0
 10
657.103151393375
 20
-629.5663321263403
 30
0.0
 10
655.9178688168859
 20
-629.9295146537384
 30
0.0
 10
654.8419365086341
 20
-630.0255676674409
 30
0.0
 10
653.9588990777098
 20
-629.9146638187434
 30
0.0
 10
653.5005773646732
 20
-629.671309868022
 30
0.0
 10
653.299958242663
 20
-629.5647876271098
 30
0.0
  0
SPLINE
  5
177
330
1F
100
AcDbEntity
  8
0
  6
Continuous
 62
     7
370
    25
100
AcDbSpline
210
0.0
220
0.0
230
1.0
 70
     8
 71
     3
 72
    13
 73
     9
 74
     0
 42
0.00000001
 43
0.00000001
 40
0.0
 40
0.0
 40
0.0
 40
0.0
 40
0.0301718316561657
 40
0.2730495324890058
 40
0.4848307094693334
 40
0.7100393803268449
 40
0.9297739421877077
 40
1.0
 40
1.0
 40
1.0
 40
1.0
 10
786.822103179913
 20
-294.9273350192745
 30
0.0
 10
786.8584897335866
 20
-294.9444636503956
 30
0.0
 10
787.1877813583925
 20
-295.0994746146983
 30
0.0
 10
787.6399629127504
 20
-295.6109113421128
 30
0.0
 10
788.1910644946263
 20
-296.5032678185549
 30
0.0
 10
788.5506794467601
 20
-297.6308718662796
 30
0.0
 10
788.6899151143041
 20
-298.6751781255629
 30
0.0
 10
788.6990559937099
 20
-299.316630797106
 30
0.0
 10
788.7012698389082
 20
-299.4719853154073
 30
0.0
  0
SPLINE
  5
178
330
1F
100
AcDbEntity
  8
0
  6
Continuous
 62
     7
370
    25
100
AcDbSpline
210
0.0
220
0.0
230
1.0
 70
     8
 71
     3
 72
    22
 73
    18
 74
     0
 42
0.00000001
 43
0.00000001
 40
0.0
 40
0.0
 40
0.0
 40
0.0
 40
0.0362934660826163
 40
0.1059968498303192
 40
0.1759513347606919
 40
0.2461213226811131
 40
0.3164540845392527
 40
0.3868645620045574
 40
0.4572511292761118
 40
0.527490604454074
 40
0.5974864248553803
 40
0.6671576272454602
 40
0.7364816323994401
 40
0.8056017084958186
 40
0.8748537277511613
 40
0.9452202796697953
 40
1.0
 40
1.0
 40
1.0
 40
1.0
 10
788.7012698389082
 20
-299.4719853154073
 30
0.0
 10
788.6956247930274
 20
-299.7295806970891
 30
0.0
 10
788.6791381593409
 20
-300.4819006581245
 30
0.0
 10
788.4923804093556
 20
-301.8286749065921
 30
0.0
 10
788.0715165751753
 20
-303.4994903029888
 30
0.0
 10
787.4473740933652
 20
-305.2004950946002
 30
0.0
 10
786.6395976187798
 20
-306.8779000672008
 30
0.0
 10
785.6700378928482
 20
-308.4821929372877
 30
0.0
 10
784.5679820337641
 20
-309.9650023584522
 30
0.0
 10
783.3676785200314
 20
-311.2823674085996
 30
0.0
 10
782.1078006467894
 20
-312.3961175187964
 30
0.0
 10
780.829916357933
 20
-313.2761220837858
 30
0.0
 10
779.5776385325628
 20
-313.901072091174
 30
0.0
 10
778.3923559560735
 20
-314.2642546185724
 30
0.0
 10
777.3164236478218
 20
-314.3603076322746
 30
0.0
 10
776.4333862168974
 20
-314.2494037835772
 30
0.0
 10
775.9750645038608
 20
-314.006049832856
 30
0.0
 10
775.7744453818508
 20
-313.8995275919437
 30
0.0
  0
SPLINE
  5
179
330
1F
100
AcDbEntity
  8
0
  6
Continuous
 62
     7
370
    25
100
AcDbSpline
210
0.0
220
0.0
230
1.0
 70
     8
 71
     3
 72
    13
 73
     9
 74
     0
 42
0.00000001
 43
0.00000001
 40
0.0
 40
0.0
 40
0.0
 40
0.0
 40
0.0301718316562742
 40
0.2730495324891171
 40
0.4848307094694285
 40
0.7100393803269333
 40
0.9297739421878001
 40
1.0
 40
1.0
 40
1.0
 40
1.0
 10
593.6369379220663
 20
-629.5338555323857
 30
0.0
 10
593.6733244757398
 20
-629.550984163507
 30
0.0
 10
594.0026161005459
 20
-629.7059951278098
 30
0.0
 10
594.4547976549038
 20
-630.2174318552246
 30
0.0
 10
595.0058992367796
 20
-631.1097883316668
 30
0.0
 10
595.3655141889135
 20
-632.2373923793914
 30
0.0
 10
595.5047498564574
 20
-633.2816986386745
 30
0.0
 10
595.513890735863
 20
-633.9231513102175
 30
0.0
 10
595.5161045810614
 20
-634.0785058285186
 30
0.0
  0
SPLINE
  5
17A
330
1F
100
AcDbEntity
  8
0
  6
Continuous
 62
     7
370
    25
100
AcDbSpline
210
0.0
220
0.0
230
1.0
 70
     8
 71
     3
 72
    22
 73
    18
 74
     0
 42
0.00000001
 43
0.00000001
 40
0.0
 40
0.0
 40
0.0
 40
0.0
 40
0.0362934660826157
 40
0.1059968498303076
 40
0.1759513347606806
 40
0.2461213226811066
 40
0.3164540845392421
 40
0.38686456200455
 40
0.4572511292761075
 40
0.5274906044540657
 40
0.5974864248553711
 40
0.6671576272454536
 40
0.7364816323994342
 40
0.8056017084958119
 40
0.8748537277511556
 40
0.9452202796697955
 40
1.0
 40
1.0
 40
1.0
 40
1.0
 10
595.5161045810614
 20
-634.0785058285186
 30
0.0
 10
595.5104595351805
 20
-634.3361012102004
 30
0.0
 10
595.4939729014942
 20
-635.0884211712357
 30
0.0
 10
595.3072151515089
 20
-636.4351954197033
 30
0.0
 10
594.8863513173286
 20
-638.1060108160999
 30
0.0
 10
594.2622088355184
 20
-639.8070156077113
 30
0.0
 10
593.4544323609331
 20
-641.484420580312
 30
0.0
 10
592.4848726350015
 20
-643.0887134503988
 30
0.0
 10
591.3828167759173
 20
-644.5715228715634
 30
0.0
 10
590.1825132621848
 20
-645.8888879217108
 30
0.0
 10
588.9226353889427
 20
-647.0026380319076
 30
0.0
 10
587.6447511000864
 20
-647.882642596897
 30
0.0
 10
586.392473274716
 20
-648.5075926042854
 30
0.0
 10
585.2071906982267
 20
-648.8707751316836
 30
0.0
 10
584.131258389975
 20
-648.966828145386
 30
0.0
 10
583.2482209590506
 20
-648.8559242966885
 30
0.0
 10
582.7898992460141
 20
-648.6125703459672
 30
0.0
 10
582.5892801240041
 20
-648.506048105055
 30
0.0
  0
SPLINE
  5
17B
330
1F
100
AcDbEntity
  8
0
  6
Continuous
 62
     7
370
    25
100
AcDbSpline
210
0.0
220
0.0
230
1.0
 70
     8
 71
     3
 72
    13
 73
     9
 74
     0
 42
0.00000001
 43
0.00000001
 40
0.0
 40
0.0
 40
0.0
 40
0.0
 40
0.0301718316562742
 40
0.2730495324891209
 40
0.4848307094694382
 40
0.7100393803269535
 40
0.9297739421878098
 40
1.0
 40
1.0
 40
1.0
 40
1.0
 10
735.058294159409
 20
-265.035009822153
 30
0.0
 10
735.0946807130825
 20
-265.0521384532743
 30
0.0
 10
735.4239723378887
 20
-265.2071494175771
 30
0.0
 10
735.8761538922467
 20
-265.7185861449919
 30
0.0
 10
736.4272554741225
 20
-266.610942621434
 30
0.0
 10
736.7868704262562
 20
-267.7385466691587
 30
0.0
 10
736.9261060938002
 20
-268.7828529284418
 30
0.0
 10
736.9352469732058
 20
-269.4243055999847
 30
0.0
 10
736.9374608184041
 20
-269.5796601182857
 30
0.0
  0
SPLINE
  5
17C
330
1F
100
AcDbEntity
  8
0
  6
Continuous
 62
     7
370
    25
100
AcDbSpline
210
0.0
220
0.0
230
1.0
 70
     8
 71
     3
 72
    22
 73
    18
 74
     0
 42
0.00000001
 43
0.00000001
 40
0.0
 40
0.0
 40
0.0
 40
0.0
 40
0.0362934660826158
 40
0.105996849830308
 40
0.1759513347606811
 40
0.2461213226811071
 40
0.3164540845392455
 40
0.3868645620045547
 40
0.4572511292761169
 40
0.5274906044540796
 40
0.5974864248553899
 40
0.667157627245472
 40
0.7364816323994468
 40
0.8056017084958297
 40
0.8748537277511712
 40
0.9452202796698155
 40
1.0
 40
1.0
 40
1.0
 40
1.0
 10
736.9374608184041
 20
-269.5796601182857
 30
0.0
 10
736.9318157725234
 20
-269.8372554999676
 30
0.0
 10
736.915329138837
 20
-270.5895754610029
 30
0.0
 10
736.7285713888516
 20
-271.9363497094705
 30
0.0
 10
736.3077075546714
 20
-273.6071651058673
 30
0.0
 10
735.6835650728613
 20
-275.3081698974784
 30
0.0
 10
734.8757885982759
 20
-276.9855748700793
 30
0.0
 10
733.9062288723443
 20
-278.5898677401662
 30
0.0
 10
732.80417301326
 20
-280.0726771613309
 30
0.0
 10
731.6038694995273
 20
-281.3900422114782
 30
0.0
 10
730.3439916262853
 20
-282.5037923216751
 30
0.0
 10
729.0661073374289
 20
-283.3837968866644
 30
0.0
 10
727.8138295120585
 20
-284.0087468940527
 30
0.0
 10
726.6285469355693
 20
-284.3719294214508
 30
0.0
 10
725.5526146273176
 20
-284.4679824351533
 30
0.0
 10
724.6695771963933
 20
-284.3570785864557
 30
0.0
 10
724.2112554833568
 20
-284.1137246357343
 30
0.0
 10
724.0106363613468
 20
-284.0072023948222
 30
0.0
  0
SPLINE
  5
17D
330
1F
100
AcDbEntity
  8
0
  6
Continuous
 62
     7
370
    25
100
AcDbSpline
210
0.0
220
0.0
230
1.0
 70
     8
 71
     3
 72
    13
 73
     9
 74
     0
 42
0.00000001
 43
0.00000001
 40
0.0
 40
0.0
 40
0.0
 40
0.0
 40
0.0301718316563045
 40
0.2730495324891539
 40
0.4848307094694635
 40
0.7100393803269621
 40
0.9297739421878148
 40
1.0
 40
1.0
 40
1.0
 40
1.0
 10
541.8731289015622
 20
-599.6415303352644
 30
0.0
 10
541.9095154552358
 20
-599.6586589663856
 30
0.0
 10
542.2388070800419
 20
-599.8136699306884
 30
0.0
 10
542.6909886343998
 20
-600.3251066581032
 30
0.0
 10
543.2420902162756
 20
-601.2174631345454
 30
0.0
 10
543.6017051684095
 20
-602.3450671822701
 30
0.0
 10
543.7409408359533
 20
-603.389373441553
 30
0.0
 10
543.7500817153589
 20
-604.030826113096
 30
0.0
 10
543.7522955605573
 20
-604.1861806313971
 30
0.0
  0
SPLINE
  5
17E
330
1F
100
AcDbEntity
  8
0
  6
Continuous
 62
     7
370
    25
100
AcDbSpline
210
0.0
220
0.0
230
1.0
 70
     8
 71
     3
 72
    22
 73
    18
 74
     0
 42
0.00000001
 43
0.00000001
 40
0.0
 40
0.0
 40
0.0
 40
0.0
 40
0.0362934660826163
 40
0.1059968498303192
 40
0.1759513347606919
 40
0.2461213226811137
 40
0.3164540845392456
 40
0.3868645620045578
 40
0.4572511292761195
 40
0.5274906044540776
 40
0.5974864248553857
 40
0.6671576272454687
 40
0.7364816323994476
 40
0.8056017084958221
 40
0.874853727751166
 40
0.945220279669801
 40
1.0
 40
1.0
 40
1.0
 40
1.0
 10
543.7522955605573
 20
-604.1861806313971
 30
0.0
 10
543.7466505146765
 20
-604.443776013079
 30
0.0
 10
543.7301638809902
 20
-605.1960959741143
 30
0.0
 10
543.5434061310046
 20
-606.542870222582
 30
0.0
 10
543.1225422968246
 20
-608.2136856189786
 30
0.0
 10
542.4983998150143
 20
-609.91469041059
 30
0.0
 10
541.6906233404289
 20
-611.5920953831906
 30
0.0
 10
540.7210636144972
 20
-613.1963882532775
 30
0.0
 10
539.6190077554131
 20
-614.6791976744421
 30
0.0
 10
538.4187042416804
 20
-615.9965627245895
 30
0.0
 10
537.1588263684386
 20
-617.1103128347862
 30
0.0
 10
535.880942079582
 20
-617.9903173997756
 30
0.0
 10
534.6286642542117
 20
-618.6152674071639
 30
0.0
 10
533.4433816777224
 20
-618.978449934562
 30
0.0
 10
532.3674493694708
 20
-619.0745029482645
 30
0.0
 10
531.4844119385466
 20
-618.963599099567
 30
0.0
 10
531.0260902255101
 20
-618.7202451488457
 30
0.0
 10
530.8254711034999
 20
-618.6137229079335
 30
0.0
  0
SPLINE
  5
17F
330
1F
100
AcDbEntity
  8
0
  6
Continuous
 62
     7
370
    25
100
AcDbSpline
210
0.0
220
0.0
230
1.0
 70
     8
 71
     3
 72
    13
 73
     9
 74
     0
 42
0.00000001
 43
0.00000001
 40
0.0
 40
0.0
 40
0.0
 40
0.0
 40
0.0301718316562665
 40
0.2730495324891134
 40
0.4848307094694269
 40
0.7100393803269418
 40
0.9297739421877906
 40
1.0
 40
1.0
 40
1.0
 40
1.0
 10
664.3476160407499
 20
-283.9762703000981
 30
0.0
 10
664.3840025944235
 20
-283.9933989312193
 30
0.0
 10
664.7132942192295
 20
-284.1484098955223
 30
0.0
 10
665.1654757735876
 20
-284.6598466229368
 30
0.0
 10
665.7165773554633
 20
-285.5522030993791
 30
0.0
 10
666.0761923075971
 20
-286.6798071471037
 30
0.0
 10
666.215427975141
 20
-287.7241134063867
 30
0.0
 10
666.2245688545466
 20
-288.3655660779298
 30
0.0
 10
666.226782699745
 20
-288.5209205962309
 30
0.0
  0
SPLINE
  5
180
330
1F
100
AcDbEntity
  8
0
  6
Continuous
 62
     7
370
    25
100
AcDbSpline
210
0.0
220
0.0
230
1.0
 70
     8
 71
     3
 72
    22
 73
    18
 74
     0
 42
0.00000001
 43
0.00000001
 40
0.0
 40
0.0
 40
0.0
 40
0.0
 40
0.0362934660826154
 40
0.1059968498303123
 40
0.175951334760685
 40
0.2461213226811099
 40
0.3164540845392424
 40
0.3868645620045511
 40
0.4572511292761148
 40
0.5274906044540719
 40
0.5974864248553832
 40
0.667157627245459
 40
0.7364816323994401
 40
0.8056017084958172
 40
0.8748537277511536
 40
0.9452202796697936
 40
1.0
 40
1.0
 40
1.0
 40
1.0
 10
666.226782699745
 20
-288.5209205962309
 30
0.0
 10
666.2211376538643
 20
-288.7785159779127
 30
0.0
 10
666.204651020178
 20
-289.5308359389481
 30
0.0
 10
666.0178932701924
 20
-290.8776101874157
 30
0.0
 10
665.5970294360122
 20
-292.5484255838124
 30
0.0
 10
664.972886954202
 20
-294.2494303754236
 30
0.0
 10
664.1651104796167
 20
-295.9268353480244
 30
0.0
 10
663.195550753685
 20
-297.5311282181113
 30
0.0
 10
662.0934948946009
 20
-299.013937639276
 30
0.0
 10
660.8931913808681
 20
-300.3313026894233
 30
0.0
 10
659.6333135076262
 20
-301.4450527996201
 30
0.0
 10
658.3554292187698
 20
-302.3250573646094
 30
0.0
 10
657.1031513933995
 20
-302.9500073719977
 30
0.0
 10
655.9178688169102
 20
-303.3131898993959
 30
0.0
 10
654.8419365086585
 20
-303.4092429130984
 30
0.0
 10
653.9588990777341
 20
-303.2983390644008
 30
0.0
 10
653.5005773646977
 20
-303.0549851136795
 30
0.0
 10
653.2999582426875
 20
-302.9484628727673
 30
0.0
  0
SPLINE
  5
181
330
1F
100
AcDbEntity
  8
0
  6
Continuous
 62
     7
370
    25
100
AcDbSpline
210
0.0
220
0.0
230
1.0
 70
     8
 71
     3
 72
    13
 73
     9
 74
     0
 42
0.00000001
 43
0.00000001
 40
0.0
 40
0.0
 40
0.0
 40
0.0
 40
0.0301718316562995
 40
0.2730495324891573
 40
0.4848307094694689
 40
0.7100393803269935
 40
0.929773942187852
 40
1.0
 40
1.0
 40
1.0
 40
1.0
 10
522.926259803416
 20
-528.9252438595333
 30
0.0
 10
522.9626463570896
 20
-528.9423724906545
 30
0.0
 10
523.2919379818959
 20
-529.0973834549574
 30
0.0
 10
523.7441195362537
 20
-529.6088201823723
 30
0.0
 10
524.2952211181296
 20
-530.5011766588145
 30
0.0
 10
524.6548360702634
 20
-531.6287807065391
 30
0.0
 10
524.7940717378073
 20
-532.6730869658222
 30
0.0
 10
524.8032126172127
 20
-533.3145396373652
 30
0.0
 10
524.8054264624111
 20
-533.4698941556661
 30
0.0
  0
SPLINE
  5
182
330
1F
100
AcDbEntity
  8
0
  6
Continuous
 62
     7
370
    25
100
AcDbSpline
210
0.0
220
0.0
230
1.0
 70
     8
 71
     3
 72
    22
 73
    18
 74
     0
 42
0.00000001
 43
0.00000001
 40
0.0
 40
0.0
 40
0.0
 40
0.0
 40
0.036293466082616
 40
0.1059968498303409
 40
0.1759513347607112
 40
0.2461213226811296
 40
0.316454084539266
 40
0.3868645620045735
 40
0.4572511292761304
 40
0.5274906044540908
 40
0.5974864248553978
 40
0.6671576272454781
 40
0.7364816323994579
 40
0.8056017084958338
 40
0.8748537277511758
 40
0.9452202796698129
 40
1.0
 40
1.0
 40
1.0
 40
1.0
 10
524.8054264624111
 20
-533.4698941556661
 30
0.0
 10
524.7997814165304
 20
-533.727489537348
 30
0.0
 10
524.7832947828441
 20
-534.4798094983835
 30
0.0
 10
524.5965370328585
 20
-535.8265837468514
 30
0.0
 10
524.1756731986783
 20
-537.4973991432481
 30
0.0
 10
523.551530716868
 20
-539.1984039348594
 30
0.0
 10
522.7437542422825
 20
-540.8758089074602
 30
0.0
 10
521.774194516351
 20
-542.4801017775469
 30
0.0
 10
520.6721386572667
 20
-543.9629111987116
 30
0.0
 10
519.4718351435341
 20
-545.2802762488587
 30
0.0
 10
518.2119572702921
 20
-546.3940263590555
 30
0.0
 10
516.9340729814356
 20
-547.274030924045
 30
0.0
 10
515.6817951560654
 20
-547.8989809314331
 30
0.0
 10
514.4965125795761
 20
-548.2621634588313
 30
0.0
 10
513.4205802713245
 20
-548.3582164725336
 30
0.0
 10
512.5375428404002
 20
-548.247312623836
 30
0.0
 10
512.0792211273638
 20
-548.0039586731148
 30
0.0
 10
511.8786020053537
 20
-547.8974364322025
 30
0.0
  0
SPLINE
  5
183
330
1F
100
AcDbEntity
  8
0
  6
Continuous
 62
     7
370
    25
100
AcDbSpline
210
0.0
220
0.0
230
1.0
 70
     8
 71
     3
 72
    13
 73
     9
 74
     0
 42
0.00000001
 43
0.00000001
 40
0.0
 40
0.0
 40
0.0
 40
0.0
 40
0.0301718316561726
 40
0.2730495324890148
 40
0.4848307094693299
 40
0.7100393803268523
 40
0.9297739421877015
 40
1.0
 40
1.0
 40
1.0
 40
1.0
 10
593.6369379220873
 20
-346.6758210044169
 30
0.0
 10
593.673324475761
 20
-346.6929496355381
 30
0.0
 10
594.0026161005668
 20
-346.8479605998409
 30
0.0
 10
594.4547976549248
 20
-347.3593973272555
 30
0.0
 10
595.0058992368006
 20
-348.2517538036976
 30
0.0
 10
595.3655141889344
 20
-349.3793578514221
 30
0.0
 10
595.5047498564785
 20
-350.4236641107054
 30
0.0
 10
595.5138907358842
 20
-351.0651167822485
 30
0.0
 10
595.5161045810825
 20
-351.2204713005498
 30
0.0
  0
SPLINE
  5
184
330
1F
100
AcDbEntity
  8
0
  6
Continuous
 62
     7
370
    25
100
AcDbSpline
210
0.0
220
0.0
230
1.0
 70
     8
 71
     3
 72
    22
 73
    18
 74
     0
 42
0.00000001
 43
0.00000001
 40
0.0
 40
0.0
 40
0.0
 40
0.0
 40
0.0362934660826155
 40
0.105996849830307
 40
0.1759513347606795
 40
0.2461213226811051
 40
0.3164540845392402
 40
0.3868645620045481
 40
0.4572511292761103
 40
0.5274906044540653
 40
0.5974864248553743
 40
0.6671576272454552
 40
0.7364816323994349
 40
0.805601708495811
 40
0.8748537277511459
 40
0.9452202796697909
 40
1.0
 40
1.0
 40
1.0
 40
1.0
 10
595.5161045810825
 20
-351.2204713005498
 30
0.0
 10
595.5104595352018
 20
-351.4780666822317
 30
0.0
 10
595.4939729015153
 20
-352.230386643267
 30
0.0
 10
595.3072151515299
 20
-353.5771608917346
 30
0.0
 10
594.8863513173497
 20
-355.2479762881312
 30
0.0
 10
594.2622088355396
 20
-356.9489810797426
 30
0.0
 10
593.4544323609542
 20
-358.6263860523433
 30
0.0
 10
592.4848726350226
 20
-360.2306789224302
 30
0.0
 10
591.3828167759385
 20
-361.7134883435948
 30
0.0
 10
590.1825132622058
 20
-363.0308533937421
 30
0.0
 10
588.9226353889638
 20
-364.1446035039389
 30
0.0
 10
587.6447511001074
 20
-365.0246080689283
 30
0.0
 10
586.3924732747371
 20
-365.6495580763167
 30
0.0
 10
585.2071906982478
 20
-366.0127406037148
 30
0.0
 10
584.1312583899962
 20
-366.1087936174173
 30
0.0
 10
583.2482209590717
 20
-365.9978897687197
 30
0.0
 10
582.7898992460352
 20
-365.7545358179984
 30
0.0
 10
582.5892801240251
 20
-365.6480135770862
 30
0.0
  0
SPLINE
  5
185
330
1F
100
AcDbEntity
  8
0
  6
Continuous
 62
     7
370
    25
100
AcDbSpline
210
0.0
220
0.0
230
1.0
 70
     8
 71
     3
 72
    13
 73
     9
 74
     0
 42
0.00000001
 43
0.00000001
 40
0.0
 40
0.0
 40
0.0
 40
0.0
 40
0.0301718316562846
 40
0.2730495324891429
 40
0.484830709469442
 40
0.710039380326956
 40
0.9297739421878035
 40
1.0
 40
1.0
 40
1.0
 40
1.0
 10
541.8731289015743
 20
-436.3333679580932
 30
0.0
 10
541.909515455248
 20
-436.3504965892144
 30
0.0
 10
542.2388070800539
 20
-436.5055075535172
 30
0.0
 10
542.690988634412
 20
-437.016944280932
 30
0.0
 10
543.2420902162878
 20
-437.9093007573742
 30
0.0
 10
543.6017051684216
 20
-439.0369048050988
 30
0.0
 10
543.7409408359656
 20
-440.0812110643819
 30
0.0
 10
543.750081715371
 20
-440.7226637359249
 30
0.0
 10
543.7522955605695
 20
-440.8780182542259
 30
0.0
  0
SPLINE
  5
186
330
1F
100
AcDbEntity
  8
0
  6
Continuous
 62
     7
370
    25
100
AcDbSpline
210
0.0
220
0.0
230
1.0
 70
     8
 71
     3
 72
    22
 73
    18
 74
     0
 42
0.00000001
 43
0.00000001
 40
0.0
 40
0.0
 40
0.0
 40
0.0
 40
0.0362934660826162
 40
0.1059968498303413
 40
0.1759513347607118
 40
0.2461213226811304
 40
0.3164540845392668
 40
0.3868645620045744
 40
0.4572511292761304
 40
0.527490604454091
 40
0.5974864248553953
 40
0.6671576272454768
 40
0.7364816323994577
 40
0.8056017084958336
 40
0.874853727751179
 40
0.9452202796698185
 40
1.0
 40
1.0
 40
1.0
 40
1.0
 10
543.7522955605695
 20
-440.8780182542259
 30
0.0
 10
543.7466505146888
 20
-441.1356136359078
 30
0.0
 10
543.7301638810023
 20
-441.8879335969433
 30
0.0
 10
543.5434061310169
 20
-443.2347078454112
 30
0.0
 10
543.1225422968365
 20
-444.9055232418081
 30
0.0
 10
542.4983998150262
 20
-446.6065280334192
 30
0.0
 10
541.6906233404409
 20
-448.28393300602
 30
0.0
 10
540.7210636145093
 20
-449.8882258761067
 30
0.0
 10
539.6190077554251
 20
-451.3710352972713
 30
0.0
 10
538.4187042416925
 20
-452.6884003474186
 30
0.0
 10
537.1588263684504
 20
-453.8021504576154
 30
0.0
 10
535.880942079594
 20
-454.6821550226046
 30
0.0
 10
534.6286642542237
 20
-455.3071050299929
 30
0.0
 10
533.4433816777345
 20
-455.670287557391
 30
0.0
 10
532.3674493694828
 20
-455.7663405710934
 30
0.0
 10
531.4844119385585
 20
-455.6554367223958
 30
0.0
 10
531.026090225522
 20
-455.4120827716745
 30
0.0
 10
530.8254711035121
 20
-455.3055605307624
 30
0.0
  0
LWPOLYLINE
  5
187
330
1F
100
AcDbEntity
  8
0
  6
Continuous
 62
     7
370
    25
100
AcDbPolyline
 90
      159
 70
   128
 43
0.0
 10
814.6585465771
 20
-365.902129204
 10
814.5347190883
 20
-358.7830993008
 10
814.1634324184
 20
-351.8182942226
 10
813.545273648
 20
-345.0187267579
 10
812.6812202132
 20
-338.3951484204
 10
811.5726383601
 20
-331.958032449
 10
810.2212809844
 20
-325.717557247
 10
808.62928486
 20
-319.6835902886
 10
806.7991672599
 20
-313.8656725157
 10
804.7338219762
 20
-308.2730032521
 10
802.4365147443
 20
-302.9144256576
 10
799.9108780793
 20
-297.7984127446
 10
797.1609055317
 20
-292.9330539813
 10
794.1909453734
 20
-288.3260424999
 10
791.0056937219
 20
-283.9846629324
 10
787.6101871147
 20
-279.9157798924
 10
784.0097945458
 20
-276.1258271202
 10
780.2102089758
 20
-272.6207973102
 10
776.2174383306
 20
-269.4062326349
 10
772.0377960011
 20
-266.4872159819
 10
767.6778908611
 20
-263.8683629164
 10
763.1446168166
 20
-261.5538143835
 10
758.4451419058
 20
-259.5472301602
 10
753.5868969645
 20
-257.8517830685
 10
748.5775638765
 20
-256.4701539587
 10
743.425063427
 20
-255.4045274705
 10
738.1375427784
 20
-254.6565885785
 10
732.7233625876
 20
-254.2275199276
 10
727.1910837863
 20
-254.1179999637
 10
721.5494540445
 20
-254.3282018604
 10
715.8073939384
 20
-254.8577932451
 10
709.9739828453
 20
-255.7059367252
 10
704.0584445871
 20
-256.8712912113
 10
698.0701328458
 20
-258.3520140386
 10
692.0185163731
 20
-260.1457638799
 10
685.9131640184
 20
-262.249704448
 10
679.7637295989
 20
-264.6605089804
 10
673.5799366343
 20
-267.3743654996
 10
667.3715629724
 20
-270.3869828406
 10
661.1484253279
 20
-273.6935974362
 10
654.9203637607
 20
-277.2889808491
 10
648.6972261163
 20
-281.167448039
 10
642.4888524543
 20
-285.3228663521
 10
636.3050594897
 20
-289.748665218
 10
630.1556250702
 20
-294.437846539
 10
624.0502727156
 20
-299.3829957554
 10
617.9986562428
 20
-304.5762935701
 10
612.0103445015
 20
-310.0095283116
 10
606.0948062434
 20
-315.674108919
 10
600.2613951502
 20
-321.5610785262
 10
594.5193350441
 20
-327.661128624
 10
588.8777053023
 20
-333.9646137796
 10
583.3454265011
 20
-340.4615668871
 10
577.9312463102
 20
-347.1417149283
 10
572.6437256616
 20
-353.994495216
 10
567.4912252121
 20
-361.0090720962
 10
562.4818921241
 20
-368.1743540809
 10
557.6236471828
 20
-375.4790113864
 10
552.924172272
 20
-382.9114938483
 10
548.3908982276
 20
-390.4600491839
 10
544.0309930875
 20
-398.1127415758
 10
539.8513507581
 20
-405.8574705442
 10
535.8585801128
 20
-413.6819900809
 10
532.0589945428
 20
-421.573928012
 10
528.4586019739
 20
-429.5208055616
 10
525.0630953668
 20
-437.5100570829
 10
521.8778437153
 20
-445.529049927
 10
518.907883557
 20
-453.565104418
 10
516.1579110094
 20
-461.6055139019
 10
513.6322743443
 20
-469.6375648387
 10
511.3349671124
 20
-477.6485569049
 10
509.2696218288
 20
-485.6258230755
 10
507.4395042286
 20
-493.5567496528
 10
505.8475081042
 20
-501.4287962119
 10
504.4961507285
 20
-509.2295154291
 10
503.3875688754
 20
-516.9465727638
 10
502.5235154406
 20
-524.5677659623
 10
501.9053566703
 20
-532.0810443515
 10
501.5340700004
 20
-539.4745278941
 10
501.4102425115
 20
-546.7365259728
 10
501.5340700004
 20
-553.855555876
 10
501.9053566703
 20
-560.8203609542
 10
502.5235154406
 20
-567.6199284189
 10
503.3875688754
 20
-574.2435067564
 10
504.4961507285
 20
-580.6806227278
 10
505.8475081042
 20
-586.9210979298
 10
507.4395042286
 20
-592.9550648882
 10
509.2696218288
 20
-598.7729826611
 10
511.3349671124
 20
-604.3656519247
 10
513.6322743443
 20
-609.7242295193
 10
516.1579110094
 20
-614.8402424322
 10
518.907883557
 20
-619.7056011955
 10
521.8778437153
 20
-624.3126126769
 10
525.0630953668
 20
-628.6539922444
 10
528.4586019739
 20
-632.7228752844
 10
532.0589945428
 20
-636.5128280566
 10
535.8585801128
 20
-640.0178578667
 10
539.8513507581
 20
-643.2324225419
 10
544.0309930875
 20
-646.1514391949
 10
548.3908982276
 20
-648.7702922604
 10
552.924172272
 20
-651.0848407933
 10
557.6236471828
 20
-653.0914250166
 10
562.4818921241
 20
-654.7868721084
 10
567.4912252121
 20
-656.1685012181
 10
572.6437256616
 20
-657.2341277063
 10
577.9312463102
 20
-657.9820665983
 10
583.3454265011
 20
-658.4111352492
 10
588.8777053023
 20
-658.5206552131
 10
594.5193350441
 20
-658.3104533164
 10
600.2613951503
 20
-657.7808619317
 10
606.0948062434
 20
-656.9327184516
 10
612.0103445015
 20
-655.7673639655
 10
617.9986562428
 20
-654.2866411382
 10
624.0502727156
 20
-652.4928912969
 10
630.1556250702
 20
-650.3889507288
 10
636.3050594897
 20
-647.9781461964
 10
642.4888524543
 20
-645.2642896772
 10
648.6972261163
 20
-642.2516723362
 10
654.9203637607
 20
-638.9450577406
 10
661.1484253279
 20
-635.3496743277
 10
667.3715629724
 20
-631.4712071378
 10
673.5799366343
 20
-627.3157888247
 10
679.7637295989
 20
-622.8899899588
 10
685.9131640184
 20
-618.2008086379
 10
692.0185163731
 20
-613.2556594214
 10
698.0701328458
 20
-608.0623616068
 10
704.0584445871
 20
-602.6291268653
 10
709.9739828453
 20
-596.9645462578
 10
715.8073939384
 20
-591.0775766506
 10
721.5494540445
 20
-584.9775265528
 10
727.1910837863
 20
-578.6740413973
 10
732.7233625876
 20
-572.1770882897
 10
738.1375427784
 20
-565.4969402485
 10
743.425063427
 20
-558.6441599608
 10
748.5775638765
 20
-551.6295830806
 10
753.5868969645
 20
-544.4643010959
 10
758.4451419058
 20
-537.1596437904
 10
763.1446168166
 20
-529.7271613285
 10
767.6778908611
 20
-522.1786059929
 10
772.0377960011
 20
-514.525913601
 10
776.2174383306
 20
-506.7811846326
 10
780.2102089758
 20
-498.9566650959
 10
784.0097945458
 20
-491.0647271648
 10
787.6101871147
 20
-483.1178496152
 10
791.0056937219
 20
-475.1285980939
 10
794.1909453734
 20
-467.1096052498
 10
797.1609055317
 20
-459.0735507588
 10
799.9108780793
 20
-451.0331412749
 10
802.4365147443
 20
-443.0010903381
 10
804.7338219762
 20
-434.9900982719
 10
806.7991672599
 20
-427.0128321014
 10
808.62928486
 20
-419.081905524
 10
810.2212809844
 20
-411.2098589649
 10
811.5726383601
 20
-403.4091397477
 10
812.6812202132
 20
-395.692082413
 10
813.545273648
 20
-388.0708892146
 10
814.1634324184
 20
-380.5576108253
 10
814.5347190883
 20
-373.1641272828
 10
814.6585465771
 20
-365.902129204
  0
ARC
  5
188
330
1F
100
AcDbEntity
  8
0
  6
Continuous
 62
     7
370
    25
100
AcDbCircle
 10
586.1526150972
 20
-582.4724465025
 30
0.0
 40
77.24619055785432
100
AcDbArc
 50
214.6836357353
 51
265.4332435974
  0
ARC
  5
189
330
1F
100
AcDbEntity
  8
0
  6
Continuous
 62
     7
370
    25
100
AcDbCircle
 10
731.3323637048
 20
-330.9860373555
 30
0.0
 40
77.24817372743304
100
AcDbArc
 50
34.5653001447
 51
85.3427809182
  0
ARC
  5
18A
330
1F
100
AcDbEntity
  8
0
  6
Continuous
 62
     7
370
    25
100
AcDbCircle
 10
753.1264990369
 20
-344.7447704611
 30
0.0
 40
78.32967674178529
100
AcDbArc
 50
34.6178276813
 51
59.7305854489
  0
ARC
  5
18B
330
1F
100
AcDbEntity
  8
0
  6
Continuous
 62
     7
370
    25
100
AcDbCircle
 10
609.1315281399
 20
-593.9822435812
 30
0.0
 40
78.82914364470717
100
AcDbArc
 50
240.3443499074
 51
265.8838616974
  0
LWPOLYLINE
  5
18C
330
1F
100
AcDbEntity
  8
0
  6
Continuous
 62
     7
370
    25
100
AcDbPolyline
 90
       37
 70
   128
 43
0.0
 10
544.0451887794
 20
-440.4698141983
 10
543.916278289
 20
-442.2457225281
 10
543.5334636978
 20
-444.116507666
 10
542.9083766335
 20
-446.0253267524
 10
542.0600100502
 20
-447.9141812852
 10
541.0141411372
 20
-449.7256793752
 10
539.8025480923
 20
-451.4047795696
 10
538.4620445569
 20
-452.9004632587
 10
537.0333610528
 20
-454.1672848505
 10
535.5599074051
 20
-455.1667526119
 10
534.0864537575
 20
-455.8684982207
 10
532.6577702534
 20
-456.2511994918
 10
531.317266718
 20
-456.3032282406
 10
530.1056736731
 20
-456.0230035999
 10
529.0598047601
 20
-455.4190400537
 10
528.2114381768
 20
-454.5096887287
 10
527.5863511125
 20
-453.3225798048
 10
527.2035365213
 20
-451.8937829858
 10
527.0746260309
 20
-450.2667115402
 10
527.2035365213
 20
-448.4908032104
 10
527.5863511125
 20
-446.6200180725
 10
528.2114381768
 20
-444.7111989861
 10
529.0598047601
 20
-442.8223444533
 10
530.1056736731
 20
-441.0108463633
 10
531.317266718
 20
-439.3317461689
 10
532.6577702534
 20
-437.8360624798
 10
534.0864537575
 20
-436.569240888
 10
535.5599074051
 20
-435.5697731266
 10
537.0333610528
 20
-434.8680275178
 10
538.4620445569
 20
-434.4853262467
 10
539.8025480923
 20
-434.4332974979
 10
541.0141411372
 20
-434.7135221386
 10
542.0600100502
 20
-435.3174856848
 10
542.9083766335
 20
-436.2268370098
 10
543.5334636978
 20
-437.4139459337
 10
543.916278289
 20
-438.8427427527
 10
544.0451887794
 20
-440.4698141983
  0
LWPOLYLINE
  5
18D
330
1F
100
AcDbEntity
  8
0
  6
Continuous
 62
     7
370
    25
100
AcDbPolyline
 90
       37
 70
   128
 43
0.0
 10
544.0451887794
 20
-603.7779765755
 10
543.916278289
 20
-605.5538849052
 10
543.5334636978
 20
-607.4246700432
 10
542.9083766335
 20
-609.3334891296
 10
542.0600100502
 20
-611.2223436624
 10
541.0141411372
 20
-613.0338417524
 10
539.8025480923
 20
-614.7129419468
 10
538.4620445569
 20
-616.2086256359
 10
537.0333610528
 20
-617.4754472277
 10
535.5599074051
 20
-618.4749149891
 10
534.0864537575
 20
-619.1766605979
 10
532.6577702534
 20
-619.5593618689
 10
531.317266718
 20
-619.6113906177
 10
530.1056736731
 20
-619.3311659771
 10
529.0598047601
 20
-618.7272024309
 10
528.2114381768
 20
-617.8178511059
 10
527.5863511125
 20
-616.6307421819
 10
527.2035365213
 20
-615.201945363
 10
527.0746260309
 20
-613.5748739174
 10
527.2035365213
 20
-611.7989655876
 10
527.5863511125
 20
-609.9281804497
 10
528.2114381768
 20
-608.0193613633
 10
529.0598047601
 20
-606.1305068305
 10
530.1056736731
 20
-604.3190087405
 10
531.317266718
 20
-602.6399085461
 10
532.6577702534
 20
-601.1442248569
 10
534.0864537575
 20
-599.8774032652
 10
535.5599074051
 20
-598.8779355038
 10
537.0333610528
 20
-598.176189895
 10
538.4620445569
 20
-597.7934886239
 10
539.8025480923
 20
-597.7414598751
 10
541.0141411372
 20
-598.0216845158
 10
542.0600100502
 20
-598.6256480619
 10
542.9083766335
 20
-599.5349993869
 10
543.5334636978
 20
-600.7221083109
 10
543.916278289
 20
-602.1509051299
 10
544.0451887794
 20
-603.7779765755
  0
LWPOLYLINE
  5
18E
330
1F
100
AcDbEntity
  8
0
  6
Continuous
 62
     7
370
    25
100
AcDbPolyline
 90
       37
 70
   128
 43
0.0
 10
666.5196759185
 20
-614.7290412947
 10
666.3907654281
 20
-616.5049496244
 10
666.007950837
 20
-618.3757347624
 10
665.3828637726
 20
-620.2845538487
 10
664.5344971893
 20
-622.1734083815
 10
663.4886282764
 20
-623.9849064715
 10
662.2770352314
 20
-625.664006666
 10
660.9365316961
 20
-627.1596903551
 10
659.5078481919
 20
-628.4265119468
 10
658.0343945443
 20
-629.4259797082
 10
656.5609408967
 20
-630.1277253171
 10
655.1322573925
 20
-630.5104265881
 10
653.7917538572
 20
-630.5624553369
 10
652.5801608122
 20
-630.2822306963
 10
651.5342918993
 20
-629.6782671501
 10
650.6859253159
 20
-628.7689158251
 10
650.0608382516
 20
-627.5818069011
 10
649.6780236605
 20
-626.1530100822
 10
649.5491131701
 20
-624.5259386365
 10
649.6780236605
 20
-622.7500303068
 10
650.0608382516
 20
-620.8792451688
 10
650.6859253159
 20
-618.9704260824
 10
651.5342918993
 20
-617.0815715497
 10
652.5801608122
 20
-615.2700734597
 10
653.7917538572
 20
-613.5909732652
 10
655.1322573925
 20
-612.0952895761
 10
656.5609408967
 20
-610.8284679843
 10
658.0343945443
 20
-609.829000223
 10
659.5078481919
 20
-609.1272546141
 10
660.9365316961
 20
-608.7445533431
 10
662.2770352314
 20
-608.6925245943
 10
663.4886282764
 20
-608.9727492349
 10
664.5344971893
 20
-609.5767127811
 10
665.3828637726
 20
-610.4860641061
 10
666.007950837
 20
-611.6731730301
 10
666.3907654281
 20
-613.101969849
 10
666.5196759185
 20
-614.7290412947
  0
LWPOLYLINE
  5
18F
330
1F
100
AcDbEntity
  8
0
  6
Continuous
 62
     7
370
    25
100
AcDbPolyline
 90
       37
 70
   128
 43
0.0
 10
807.9410321559
 20
-369.7800677352
 10
807.8121216655
 20
-371.555976065
 10
807.4293070743
 20
-373.4267612029
 10
806.80422001
 20
-375.3355802893
 10
805.9558534267
 20
-377.2244348221
 10
804.9099845137
 20
-379.0359329121
 10
803.6983914687
 20
-380.7150331065
 10
802.3578879334
 20
-382.2107167957
 10
800.9292044293
 20
-383.4775383874
 10
799.4557507816
 20
-384.4770061488
 10
797.982297134
 20
-385.1787517576
 10
796.5536136299
 20
-385.5614530287
 10
795.2131100945
 20
-385.6134817775
 10
794.0015170496
 20
-385.3332571368
 10
792.9556481366
 20
-384.7292935906
 10
792.1072815533
 20
-383.8199422656
 10
791.482194489
 20
-382.6328333417
 10
791.0993798978
 20
-381.2040365227
 10
790.9704694074
 20
-379.5769650771
 10
791.0993798978
 20
-377.8010567473
 10
791.482194489
 20
-375.9302716094
 10
792.1072815533
 20
-374.021452523
 10
792.9556481366
 20
-372.1325979902
 10
794.0015170496
 20
-370.3210999002
 10
795.2131100945
 20
-368.6419997058
 10
796.5536136299
 20
-367.1463160167
 10
797.982297134
 20
-365.8794944249
 10
799.4557507816
 20
-364.8800266635
 10
800.9292044293
 20
-364.1782810547
 10
802.3578879334
 20
-363.7955797837
 10
803.6983914687
 20
-363.7435510349
 10
804.9099845137
 20
-364.0237756755
 10
805.9558534267
 20
-364.6277392217
 10
806.80422001
 20
-365.5370905467
 10
807.4293070743
 20
-366.7241994706
 10
807.8121216655
 20
-368.1529962896
 10
807.9410321559
 20
-369.7800677352
  0
LWPOLYLINE
  5
190
330
1F
100
AcDbEntity
  8
0
  6
Continuous
 62
     7
370
    25
100
AcDbPolyline
 90
       37
 70
   128
 43
0.0
 10
737.2303540372
 20
-269.1714560624
 10
737.1014435468
 20
-270.9473643921
 10
736.7186289556
 20
-272.8181495301
 10
736.0935418913
 20
-274.7269686165
 10
735.245175308
 20
-276.6158231492
 10
734.199306395
 20
-278.4273212392
 10
732.9877133501
 20
-280.1064214337
 10
731.6472098148
 20
-281.6021051228
 10
730.2185263106
 20
-282.8689267146
 10
728.745072663
 20
-283.8683944759
 10
727.2716190154
 20
-284.5701400848
 10
725.8429355112
 20
-284.9528413558
 10
724.5024319759
 20
-285.0048701046
 10
723.2908389309
 20
-284.724645464
 10
722.2449700179
 20
-284.1206819178
 10
721.3966034346
 20
-283.2113305928
 10
720.7715163703
 20
-282.0242216688
 10
720.3887017791
 20
-280.5954248499
 10
720.2597912887
 20
-278.9683534042
 10
720.3887017791
 20
-277.1924450745
 10
720.7715163703
 20
-275.3216599365
 10
721.3966034346
 20
-273.4128408502
 10
722.2449700179
 20
-271.5239863174
 10
723.2908389309
 20
-269.7124882274
 10
724.5024319759
 20
-268.0333880329
 10
725.8429355112
 20
-266.5377043438
 10
727.2716190154
 20
-265.2708827521
 10
728.745072663
 20
-264.2714149907
 10
730.2185263106
 20
-263.5696693819
 10
731.6472098148
 20
-263.1869681108
 10
732.9877133501
 20
-263.134939362
 10
734.199306395
 20
-263.4151640026
 10
735.245175308
 20
-264.0191275488
 10
736.0935418913
 20
-264.9284788738
 10
736.7186289556
 20
-266.1155877978
 10
737.1014435468
 20
-267.5443846167
 10
737.2303540372
 20
-269.1714560624
  0
LWPOLYLINE
  5
191
330
1F
100
AcDbEntity
  8
0
  6
Continuous
 62
     7
370
    25
100
AcDbPolyline
 90
       37
 70
   128
 43
0.0
 10
666.5196759186
 20
-288.1127165403
 10
666.3907654282
 20
-289.8886248701
 10
666.007950837
 20
-291.759410008
 10
665.3828637727
 20
-293.6682290944
 10
664.5344971894
 20
-295.5570836272
 10
663.4886282764
 20
-297.3685817172
 10
662.2770352314
 20
-299.0476819116
 10
660.9365316961
 20
-300.5433656007
 10
659.5078481919
 20
-301.8101871925
 10
658.0343945443
 20
-302.8096549539
 10
656.5609408967
 20
-303.5114005627
 10
655.1322573925
 20
-303.8941018338
 10
653.7917538572
 20
-303.9461305826
 10
652.5801608123
 20
-303.6659059419
 10
651.5342918993
 20
-303.0619423957
 10
650.685925316
 20
-302.1525910707
 10
650.0608382517
 20
-300.9654821468
 10
649.6780236605
 20
-299.5366853278
 10
649.5491131701
 20
-297.9096138822
 10
649.6780236605
 20
-296.1337055524
 10
650.0608382517
 20
-294.2629204145
 10
650.685925316
 20
-292.3541013281
 10
651.5342918993
 20
-290.4652467953
 10
652.5801608123
 20
-288.6537487053
 10
653.7917538572
 20
-286.9746485109
 10
655.1322573925
 20
-285.4789648218
 10
656.5609408967
 20
-284.21214323
 10
658.0343945443
 20
-283.2126754686
 10
659.5078481919
 20
-282.5109298598
 10
660.9365316961
 20
-282.1282285888
 10
662.2770352314
 20
-282.0761998399
 10
663.4886282764
 20
-282.3564244806
 10
664.5344971894
 20
-282.9603880268
 10
665.3828637727
 20
-283.8697393518
 10
666.007950837
 20
-285.0568482757
 10
666.3907654282
 20
-286.4856450947
 10
666.5196759186
 20
-288.1127165403
  0
LWPOLYLINE
  5
192
330
1F
100
AcDbEntity
  8
0
  6
Continuous
 62
     7
370
    25
100
AcDbPolyline
 90
      139
 70
   128
 43
0.0
 10
778.242547346
 20
-386.9246380835
 10
778.1179724694
 20
-393.3145233429
 10
777.74450604
 20
-399.8349956803
 10
777.122922124
 20
-406.4725404211
 10
776.2545090489
 20
-413.2134002403
 10
775.1410667336
 20
-420.0436036765
 10
773.7849029572
 20
-426.94899409
 10
772.1888285763
 20
-433.9152590047
 10
770.3561516987
 20
-440.9279597728
 10
768.2906708271
 20
-447.9725615011
 10
765.9966669861
 20
-455.0344631767
 10
763.4788948489
 20
-462.09902793
 10
760.7425728828
 20
-469.1516133717
 10
757.7933725328
 20
-476.1776019416
 10
754.6374064671
 20
-483.1624312054
 10
751.2812159073
 20
-490.0916240378
 10
747.7317570708
 20
-496.9508186286
 10
743.9963867531
 20
-503.7257982495
 10
740.0828470796
 20
-510.4025207207
 10
735.9992494589
 20
-516.9671475153
 10
731.7540577706
 20
-523.4060724417
 10
727.3560708228
 20
-529.7059498449
 10
722.8144041151
 20
-535.8537222668
 10
718.1384709452
 20
-541.8366475103
 10
713.3379628986
 20
-547.6423250492
 10
708.4228297615
 20
-553.2587217303
 10
703.4032588976
 20
-558.6741967137
 10
698.2896541343
 20
-563.8775256006
 10
693.0926141983
 20
-568.8579236973
 10
687.8229107484
 20
-573.6050683682
 10
682.4914660498
 20
-578.109120431
 10
677.1093303357
 20
-582.36074455
 10
671.6876589043
 20
-586.3511285851
 10
666.2376889976
 20
-590.0720018558
 10
660.7707165105
 20
-593.5156522843
 10
655.2980725782
 20
-596.674942379
 10
649.831100091
 20
-599.5433240289
 10
644.3811301843
 20
-602.1148520748
 10
638.9594587529
 20
-604.3841966324
 10
633.5773230389
 20
-606.3466541384
 10
628.2458783402
 20
-607.9981571
 10
622.9761748903
 20
-609.335282525
 10
617.7791349543
 20
-610.3552590169
 10
612.665530191
 20
-611.0559725186
 10
607.6459593272
 20
-611.4359706944
 10
602.73082619
 20
-611.4944659401
 10
597.9303181435
 20
-611.2313370152
 10
593.2543849735
 20
-610.6471292948
 10
588.7127182658
 20
-609.7430536384
 10
584.314731318
 20
-608.520983881
 10
580.0695396297
 20
-606.9834529487
 10
575.985942009
 20
-605.1336476093
 10
572.0724023355
 20
-602.9754018666
 10
568.3370320178
 20
-600.5131890147
 10
564.7875731813
 20
-597.7521123656
 10
561.4313826215
 20
-594.6978946724
 10
558.2754165558
 20
-591.3568662676
 10
555.3262162058
 20
-587.7359519427
 10
552.5898942397
 20
-583.8426565957
 10
550.0721221025
 20
-579.6850496757
 10
547.7781182615
 20
-575.2717484579
 10
545.7126373899
 20
-570.611900183
 10
543.8799605123
 20
-565.7151630982
 10
542.2838861314
 20
-560.5916864388
 10
540.927722355
 20
-555.2520893927
 10
539.8142800397
 20
-549.70743909
 10
538.9458669647
 20
-543.9692276653
 10
538.3242830487
 20
-538.049348438
 10
537.9508166192
 20
-531.9600712617
 10
537.8262417426
 20
-525.7140170933
 10
537.9508166192
 20
-519.3241318339
 10
538.3242830487
 20
-512.8036594965
 10
538.9458669647
 20
-506.1661147557
 10
539.8142800397
 20
-499.4252549365
 10
540.927722355
 20
-492.5950515003
 10
542.2838861314
 20
-485.6896610868
 10
543.8799605123
 20
-478.7233961721
 10
545.7126373899
 20
-471.710695404
 10
547.7781182615
 20
-464.6660936757
 10
550.0721221025
 20
-457.6041920001
 10
552.5898942397
 20
-450.5396272468
 10
555.3262162058
 20
-443.4870418051
 10
558.2754165558
 20
-436.4610532352
 10
561.4313826215
 20
-429.4762239714
 10
564.7875731813
 20
-422.547031139
 10
568.3370320178
 20
-415.6878365482
 10
572.0724023355
 20
-408.9128569273
 10
575.985942009
 20
-402.2361344561
 10
580.0695396297
 20
-395.6715076615
 10
584.314731318
 20
-389.2325827351
 10
588.7127182658
 20
-382.9327053319
 10
593.2543849735
 20
-376.78493291
 10
597.9303181435
 20
-370.8020076665
 10
602.73082619
 20
-364.9963301276
 10
607.6459593272
 20
-359.3799334465
 10
612.665530191
 20
-353.9644584631
 10
617.7791349543
 20
-348.7611295762
 10
622.9761748903
 20
-343.7807314795
 10
628.2458783402
 20
-339.0335868086
 10
633.5773230389
 20
-334.5295347458
 10
638.9594587529
 20
-330.2779106268
 10
644.3811301843
 20
-326.2875265917
 10
649.831100091
 20
-322.566653321
 10
655.2980725782
 20
-319.1230028925
 10
660.7707165105
 20
-315.9637127978
 10
666.2376889976
 20
-313.095331148
 10
671.6876589043
 20
-310.523803102
 10
677.1093303357
 20
-308.2544585444
 10
682.4914660498
 20
-306.2920010384
 10
687.8229107484
 20
-304.6404980769
 10
693.0926141983
 20
-303.3033726518
 10
698.2896541343
 20
-302.2833961599
 10
703.4032588977
 20
-301.5826826582
 10
708.4228297615
 20
-301.2026844824
 10
713.3379628986
 20
-301.1441892367
 10
718.1384709452
 20
-301.4073181616
 10
722.8144041151
 20
-301.991525882
 10
727.3560708228
 20
-302.8956015384
 10
731.7540577706
 20
-304.1176712958
 10
735.9992494589
 20
-305.6552022281
 10
740.0828470796
 20
-307.5050075675
 10
743.9963867531
 20
-309.6632533102
 10
747.7317570708
 20
-312.1254661621
 10
751.2812159073
 20
-314.8865428112
 10
754.6374064671
 20
-317.9407605044
 10
757.7933725328
 20
-321.2817889093
 10
760.7425728828
 20
-324.9027032341
 10
763.4788948489
 20
-328.7959985811
 10
765.9966669861
 20
-332.9536055012
 10
768.2906708271
 20
-337.366906719
 10
770.3561516987
 20
-342.0267549938
 10
772.1888285763
 20
-346.9234920786
 10
773.7849029572
 20
-352.046968738
 10
775.1410667336
 20
-357.3865657841
 10
776.2545090489
 20
-362.9312160868
 10
777.122922124
 20
-368.6694275115
 10
777.74450604
 20
-374.5893067388
 10
778.1179724694
 20
-380.6785839151
 10
778.242547346
 20
-386.9246380835
  0
LWPOLYLINE
  5
193
330
1F
100
AcDbEntity
  8
0
  6
Continuous
 62
     7
370
    25
100
AcDbPolyline
 90
       37
 70
   128
 43
0.0
 10
788.9941630577
 20
-462.3719436367
 10
788.8652525673
 20
-464.1478519664
 10
788.4824379761
 20
-466.0186371044
 10
787.8573509118
 20
-467.9274561908
 10
787.0089843285
 20
-469.8163107235
 10
785.9631154155
 20
-471.6278088135
 10
784.7515223706
 20
-473.306909008
 10
783.4110188352
 20
-474.8025926971
 10
781.9823353311
 20
-476.0694142889
 10
780.5088816835
 20
-477.0688820502
 10
779.0354280358
 20
-477.7706276591
 10
777.6067445317
 20
-478.1533289301
 10
776.2662409964
 20
-478.2053576789
 10
775.0546479514
 20
-477.9251330383
 10
774.0087790384
 20
-477.3211694921
 10
773.1604124551
 20
-476.4118181671
 10
772.5353253908
 20
-475.2247092431
 10
772.1525107996
 20
-473.7959124242
 10
772.0236003092
 20
-472.1688409785
 10
772.1525107996
 20
-470.3929326488
 10
772.5353253908
 20
-468.5221475108
 10
773.1604124551
 20
-466.6133284245
 10
774.0087790384
 20
-464.7244738917
 10
775.0546479514
 20
-462.9129758017
 10
776.2662409964
 20
-461.2338756072
 10
777.6067445317
 20
-459.7381919181
 10
779.0354280358
 20
-458.4713703264
 10
780.5088816835
 20
-457.471902565
 10
781.9823353311
 20
-456.7701569561
 10
783.4110188352
 20
-456.3874556851
 10
784.7515223706
 20
-456.3354269363
 10
785.9631154155
 20
-456.6156515769
 10
787.0089843285
 20
-457.2196151231
 10
787.8573509118
 20
-458.1289664481
 10
788.4824379761
 20
-459.3160753721
 10
788.8652525673
 20
-460.744872191
 10
788.9941630577
 20
-462.3719436367
  0
LWPOLYLINE
  5
194
330
1F
100
AcDbEntity
  8
0
  6
Continuous
 62
     7
370
    25
100
AcDbPolyline
 90
       37
 70
   128
 43
0.0
 10
788.9941630577
 20
-299.0637812595
 10
788.8652525673
 20
-300.8396895893
 10
788.4824379761
 20
-302.7104747272
 10
787.8573509118
 20
-304.6192938136
 10
787.0089843285
 20
-306.5081483464
 10
785.9631154155
 20
-308.3196464364
 10
784.7515223706
 20
-309.9987466308
 10
783.4110188353
 20
-311.4944303199
 10
781.9823353311
 20
-312.7612519117
 10
780.5088816835
 20
-313.7607196731
 10
779.0354280359
 20
-314.4624652819
 10
777.6067445317
 20
-314.8451665529
 10
776.2662409964
 20
-314.8971953017
 10
775.0546479514
 20
-314.6169706611
 10
774.0087790384
 20
-314.0130071149
 10
773.1604124551
 20
-313.1036557899
 10
772.5353253908
 20
-311.916546866
 10
772.1525107996
 20
-310.487750047
 10
772.0236003092
 20
-308.8606786014
 10
772.1525107996
 20
-307.0847702716
 10
772.5353253908
 20
-305.2139851337
 10
773.1604124551
 20
-303.3051660473
 10
774.0087790384
 20
-301.4163115145
 10
775.0546479514
 20
-299.6048134245
 10
776.2662409964
 20
-297.9257132301
 10
777.6067445317
 20
-296.4300295409
 10
779.0354280359
 20
-295.1632079492
 10
780.5088816835
 20
-294.1637401878
 10
781.9823353311
 20
-293.461994579
 10
783.4110188353
 20
-293.0792933079
 10
784.7515223706
 20
-293.0272645591
 10
785.9631154155
 20
-293.3074891998
 10
787.0089843285
 20
-293.911452746
 10
787.8573509118
 20
-294.820804071
 10
788.4824379761
 20
-296.0079129949
 10
788.8652525673
 20
-297.4367098139
 10
788.9941630577
 20
-299.0637812595
  0
LWPOLYLINE
  5
195
330
1F
100
AcDbEntity
  8
0
  6
Continuous
 62
     7
370
    25
100
AcDbPolyline
 90
       37
 70
   128
 43
0.0
 10
737.2303540372
 20
-552.0294905903
 10
737.1014435468
 20
-553.8053989201
 10
736.7186289556
 20
-555.6761840581
 10
736.0935418913
 20
-557.5850031444
 10
735.245175308
 20
-559.4738576772
 10
734.199306395
 20
-561.2853557672
 10
732.9877133501
 20
-562.9644559616
 10
731.6472098147
 20
-564.4601396508
 10
730.2185263106
 20
-565.7269612425
 10
728.745072663
 20
-566.7264290039
 10
727.2716190153
 20
-567.4281746127
 10
725.8429355112
 20
-567.8108758838
 10
724.5024319758
 20
-567.8629046326
 10
723.2908389309
 20
-567.5826799919
 10
722.2449700179
 20
-566.9787164458
 10
721.3966034346
 20
-566.0693651208
 10
720.7715163703
 20
-564.8822561968
 10
720.3887017791
 20
-563.4534593778
 10
720.2597912887
 20
-561.8263879322
 10
720.3887017791
 20
-560.0504796025
 10
720.7715163703
 20
-558.1796944645
 10
721.3966034346
 20
-556.2708753781
 10
722.2449700179
 20
-554.3820208454
 10
723.2908389309
 20
-552.5705227553
 10
724.5024319758
 20
-550.8914225609
 10
725.8429355112
 20
-549.3957388718
 10
727.2716190153
 20
-548.12891728
 10
728.745072663
 20
-547.1294495187
 10
730.2185263106
 20
-546.4277039098
 10
731.6472098147
 20
-546.0450026388
 10
732.9877133501
 20
-545.99297389
 10
734.199306395
 20
-546.2731985306
 10
735.245175308
 20
-546.8771620768
 10
736.0935418913
 20
-547.7865134018
 10
736.7186289556
 20
-548.9736223258
 10
737.1014435468
 20
-550.4024191447
 10
737.2303540372
 20
-552.0294905903
  0
LWPOLYLINE
  5
196
330
1F
100
AcDbEntity
  8
0
  6
Continuous
 62
     7
370
    25
100
AcDbPolyline
 90
       37
 70
   128
 43
0.0
 10
595.8089977999
 20
-633.6703017726
 10
595.6800873095
 20
-635.4462101024
 10
595.2972727183
 20
-637.3169952403
 10
594.672185654
 20
-639.2258143267
 10
593.8238190707
 20
-641.1146688595
 10
592.7779501577
 20
-642.9261669495
 10
591.5663571128
 20
-644.6052671439
 10
590.2258535774
 20
-646.100950833
 10
588.7971700733
 20
-647.3677724248
 10
587.3237164256
 20
-648.3672401862
 10
585.850262778
 20
-649.068985795
 10
584.4215792739
 20
-649.451687066
 10
583.0810757385
 20
-649.5037158148
 10
581.8694826936
 20
-649.2234911742
 10
580.8236137806
 20
-648.619527628
 10
579.9752471973
 20
-647.710176303
 10
579.350160133
 20
-646.5230673791
 10
578.9673455418
 20
-645.0942705601
 10
578.8384350514
 20
-643.4671991145
 10
578.9673455418
 20
-641.6912907847
 10
579.350160133
 20
-639.8205056468
 10
579.9752471973
 20
-637.9116865604
 10
580.8236137806
 20
-636.0228320276
 10
581.8694826936
 20
-634.2113339376
 10
583.0810757385
 20
-632.5322337432
 10
584.4215792739
 20
-631.0365500541
 10
585.850262778
 20
-629.7697284623
 10
587.3237164256
 20
-628.7702607009
 10
588.7971700733
 20
-628.0685150921
 10
590.2258535774
 20
-627.685813821
 10
591.5663571128
 20
-627.6337850722
 10
592.7779501577
 20
-627.9140097129
 10
593.8238190707
 20
-628.5179732591
 10
594.672185654
 20
-629.4273245841
 10
595.2972727183
 20
-630.614433508
 10
595.6800873095
 20
-632.043230327
 10
595.8089977999
 20
-633.6703017726
  0
LWPOLYLINE
  5
197
330
1F
100
AcDbEntity
  8
0
  6
Continuous
 62
     7
370
    25
100
AcDbPolyline
 90
       37
 70
   128
 43
0.0
 10
525.0983196812
 20
-533.0616900998
 10
524.9694091908
 20
-534.8375984295
 10
524.5865945997
 20
-536.7083835675
 10
523.9615075353
 20
-538.6172026538
 10
523.113140952
 20
-540.5060571866
 10
522.0672720391
 20
-542.3175552766
 10
520.8556789941
 20
-543.9966554711
 10
519.5151754588
 20
-545.4923391602
 10
518.0864919546
 20
-546.7591607519
 10
516.613038307
 20
-547.7586285133
 10
515.1395846594
 20
-548.4603741221
 10
513.7109011552
 20
-548.8430753932
 10
512.3703976199
 20
-548.895104142
 10
511.1588045749
 20
-548.6148795014
 10
510.1129356619
 20
-548.0109159552
 10
509.2645690786
 20
-547.1015646302
 10
508.6394820143
 20
-545.9144557062
 10
508.2566674231
 20
-544.4856588873
 10
508.1277569327
 20
-542.8585874416
 10
508.2566674231
 20
-541.0826791119
 10
508.6394820143
 20
-539.2118939739
 10
509.2645690786
 20
-537.3030748875
 10
510.1129356619
 20
-535.4142203548
 10
511.1588045749
 20
-533.6027222648
 10
512.3703976199
 20
-531.9236220703
 10
513.7109011552
 20
-530.4279383812
 10
515.1395846594
 20
-529.1611167894
 10
516.613038307
 20
-528.1616490281
 10
518.0864919546
 20
-527.4599034192
 10
519.5151754588
 20
-527.0772021482
 10
520.8556789941
 20
-527.0251733994
 10
522.0672720391
 20
-527.30539804
 10
523.113140952
 20
-527.9093615862
 10
523.9615075353
 20
-528.8187129112
 10
524.5865945997
 20
-530.0058218352
 10
524.9694091908
 20
-531.4346186541
 10
525.0983196812
 20
-533.0616900998
  0
LWPOLYLINE
  5
198
330
1F
100
AcDbEntity
  8
0
  6
Continuous
 62
     7
370
    25
100
AcDbPolyline
 90
       37
 70
   128
 43
0.0
 10
595.8089977999
 20
-350.8122672446
 10
595.6800873095
 20
-352.5881755744
 10
595.2972727183
 20
-354.4589607123
 10
594.672185654
 20
-356.3677797987
 10
593.8238190707
 20
-358.2566343315
 10
592.7779501577
 20
-360.0681324215
 10
591.5663571128
 20
-361.7472326159
 10
590.2258535774
 20
-363.2429163051
 10
588.7971700733
 20
-364.5097378968
 10
587.3237164257
 20
-365.5092056582
 10
585.850262778
 20
-366.210951267
 10
584.4215792739
 20
-366.5936525381
 10
583.0810757385
 20
-366.6456812869
 10
581.8694826936
 20
-366.3654566462
 10
580.8236137806
 20
-365.7614931001
 10
579.9752471973
 20
-364.8521417751
 10
579.350160133
 20
-363.6650328511
 10
578.9673455418
 20
-362.2362360321
 10
578.8384350514
 20
-360.6091645865
 10
578.9673455418
 20
-358.8332562567
 10
579.350160133
 20
-356.9624711188
 10
579.9752471973
 20
-355.0536520324
 10
580.8236137806
 20
-353.1647974996
 10
581.8694826936
 20
-351.3532994096
 10
583.0810757385
 20
-349.6741992152
 10
584.4215792739
 20
-348.1785155261
 10
585.850262778
 20
-346.9116939343
 10
587.3237164257
 20
-345.9122261729
 10
588.7971700733
 20
-345.2104805641
 10
590.2258535774
 20
-344.8277792931
 10
591.5663571128
 20
-344.7757505443
 10
592.7779501577
 20
-345.0559751849
 10
593.8238190707
 20
-345.6599387311
 10
594.672185654
 20
-346.5692900561
 10
595.2972727183
 20
-347.75639898
 10
595.6800873095
 20
-349.185195799
 10
595.8089977999
 20
-350.8122672446
  0
ARC
  5
199
330
1F
100
AcDbEntity
  8
0
  6
Continuous
 62
     7
370
    25
100
AcDbCircle
 10
714.0556023856
 20
-360.9438827998
 30
0.0
 40
58.36080445668168
100
AcDbArc
 50
35.2957665776
 51
83.2640377403
  0
ARC
  5
19A
330
1F
100
AcDbEntity
  8
0
  6
Continuous
 62
     7
370
    25
100
AcDbCircle
 10
603.5040308464
 20
-552.4865304312
 30
0.0
 40
58.41609147620365
100
AcDbArc
 50
217.8764919926
 51
265.5471403996
  0
ARC
  5
19B
330
1F
100
AcDbEntity
  8
0
  6
Continuous
 62
     7
370
    25
100
AcDbCircle
 10
628.5758348748
 20
-563.332882397
 30
0.0
 40
61.70638934184526
100
AcDbArc
 50
218.2969276093
 51
226.7844683059
  0
ARC
  5
19C
330
1F
100
AcDbEntity
  8
0
  6
Continuous
 62
     7
370
    25
100
AcDbCircle
 10
735.7957493438
 20
-378.0582807388
 30
0.0
 40
62.49025206698493
100
AcDbArc
 50
73.2667551755
 51
83.0010836348
  0
LINE
  5
19D
330
1F
100
AcDbEntity
  8
0
  6
Continuous
 62
     7
370
    25
100
AcDbLine
 10
786.8566389531
 20
-458.2378031021
 30
0.0
 11
786.7155414942
 21
-458.1520588773
 31
0.0
  0
LINE
  5
19E
330
1F
100
AcDbEntity
  8
0
  6
Continuous
 62
     7
370
    25
100
AcDbLine
 10
735.0928299326
 20
-547.8953500557
 30
0.0
 11
734.9517324736
 21
-547.809605831
 31
0.0
  0
LINE
  5
19F
330
1F
100
AcDbEntity
  8
0
  6
Continuous
 62
     7
370
    25
100
AcDbLine
 10
805.8035080512
 20
-365.6459272006
 30
0.0
 11
805.6624105923
 21
-365.5601829759
 31
0.0
  0
LINE
  5
1A0
330
1F
100
AcDbEntity
  8
0
  6
Continuous
 62
     7
370
    25
100
AcDbLine
 10
664.3821518139
 20
-610.5949007601
 30
0.0
 11
664.241054355
 21
-610.5091565353
 31
0.0
  0
LINE
  5
1A1
330
1F
100
AcDbEntity
  8
0
  6
Continuous
 62
     7
370
    25
100
AcDbLine
 10
786.8566389531
 20
-294.9296407249
 30
0.0
 11
786.7155414942
 21
-294.8438965002
 31
0.0
  0
LINE
  5
1A2
330
1F
100
AcDbEntity
  8
0
  6
Continuous
 62
     7
370
    25
100
AcDbLine
 10
593.6714736952
 20
-629.536161238
 30
0.0
 11
593.5303762363
 21
-629.4504170133
 31
0.0
  0
LINE
  5
1A3
330
1F
100
AcDbEntity
  8
0
  6
Continuous
 62
     7
370
    25
100
AcDbLine
 10
735.0928299326
 20
-265.0373155278
 30
0.0
 11
734.9517324737
 21
-264.951571303
 31
0.0
  0
LINE
  5
1A4
330
1F
100
AcDbEntity
  8
0
  6
Continuous
 62
     7
370
    25
100
AcDbLine
 10
541.9076646747
 20
-599.6438360409
 30
0.0
 11
541.7665672158
 21
-599.5580918161
 31
0.0
  0
LINE
  5
1A5
330
1F
100
AcDbEntity
  8
0
  6
Continuous
 62
     7
370
    25
100
AcDbLine
 10
664.3821518139
 20
-283.9785760057
 30
0.0
 11
664.241054355
 21
-283.892831781
 31
0.0
  0
LINE
  5
1A6
330
1F
100
AcDbEntity
  8
0
  6
Continuous
 62
     7
370
    25
100
AcDbLine
 10
522.9607955766
 20
-528.9275495651
 30
0.0
 11
522.8196981177
 21
-528.8418053404
 31
0.0
  0
LINE
  5
1A7
330
1F
100
AcDbEntity
  8
0
  6
Continuous
 62
     7
370
    25
100
AcDbLine
 10
593.6714736953
 20
-346.67812671
 30
0.0
 11
593.5303762363
 21
-346.5923824853
 31
0.0
  0
LINE
  5
1A8
330
1F
100
AcDbEntity
  8
0
  6
Continuous
 62
     7
370
    25
100
AcDbLine
 10
541.9076646748
 20
-436.3356736637
 30
0.0
 11
541.7665672158
 21
-436.249929439
 31
0.0
  0
LWPOLYLINE
  5
1A9
330
1F
100
AcDbEntity
  8
0
  6
Continuous
 62
     1
370
    25
100
AcDbPolyline
 90
       54
 70
   128
 43
0.0
 10
816.0727601395
 20
-365.902129204
 10
815.9483736101
 20
-373.1969128271
 10
815.5754107024
 20
-380.6237755279
 10
814.9544611475
 20
-388.1709739099
 10
814.0865067943
 20
-395.8265743011
 10
812.9729200569
 20
-403.5784716238
 10
811.615461745
 20
-411.4144085349
 10
810.0162782792
 20
-419.3219948076
 10
808.1778982971
 20
-427.2887269226
 10
806.1032286555
 20
-435.3020078388
 10
803.7955498334
 20
-443.3491669121
 10
801.2585107455
 20
-451.4174799299
 10
798.4961229719
 20
-459.4941892309
 10
795.5127544156
 20
-467.5665238776
 10
792.3131223955
 20
-475.6217198496
 10
788.9022861874
 20
-483.6470402265
 10
785.2856390245
 20
-491.6297953271
 10
781.4688995694
 20
-499.5573627749
 10
777.4581028715
 20
-507.4172074562
 10
773.259590825
 20
-515.196901341
 10
768.8800021403
 20
-522.8841431341
 10
764.3262618473
 20
-530.4667777264
 10
759.6055703455
 20
-537.9328154138
 10
754.7253920185
 20
-545.2704508562
 10
749.6934434312
 20
-552.4680817437
 10
744.5176811287
 20
-559.5143271425
 10
739.206289055
 20
-566.3980454903
 10
733.7676656127
 20
-573.1083522134
 10
728.2104103835
 20
-579.6346369376
 10
722.54331053
 20
-585.9665802654
 10
716.7753269019
 20
-592.0941700928
 10
710.9155798671
 20
-598.0077174409
 10
704.9733348899
 20
-603.6978717757
 10
698.9579878812
 20
-609.1556357937
 10
692.8790503408
 20
-614.3723796481
 10
686.7461343187
 20
-619.3398545947
 10
680.5689372156
 20
-624.0502060344
 10
674.3572264498
 20
-628.4959859336
 10
668.1208240128
 20
-632.6701646003
 10
661.8695909388
 20
-636.5661418001
 10
655.6134117122
 20
-640.1777571922
 10
649.3621786382
 20
-643.4993000704
 10
643.1257762012
 20
-646.5255183927
 10
636.9140654354
 20
-649.2516270858
 10
630.7368683323
 20
-651.6733156115
 10
624.6039523102
 20
-653.7867547826
 10
618.5250147698
 20
-655.5886028173
 10
612.5096677611
 20
-657.0760106235
 10
606.5674227839
 20
-658.2466263038
 10
600.7076757491
 20
-659.098598874
 10
594.939692121
 20
-659.6305811905
 10
589.2725922675
 20
-659.8417320799
 10
583.7153370383
 20
-659.7317176693
 10
580.0022294086
 20
-659.4733991692
  0
LWPOLYLINE
  5
1AA
330
1F
100
AcDbEntity
  8
0
  6
Continuous
 62
     1
370
    25
100
AcDbPolyline
 90
       15
 70
   128
 43
0.0
 10
794.944698991
 20
-287.1596623782
 10
795.5127544156
 20
-287.9758118602
 10
798.4961229719
 20
-292.6036224905
 10
801.2585107455
 20
-297.4909467561
 10
803.7955498334
 20
-302.6300567928
 10
806.1032286555
 20
-308.0128266112
 10
808.1778982971
 20
-313.630744946
 10
810.0162782792
 20
-319.4749287133
 10
811.615461745
 20
-325.5361370576
 10
812.9729200569
 20
-331.8047859625
 10
814.0865067943
 20
-338.2709634056
 10
814.9544611475
 20
-344.9244450313
 10
815.5754107024
 20
-351.7547103175
 10
815.9483736101
 20
-358.750959211
 10
816.0727601395
 20
-365.902129204
  0
LWPOLYLINE
  5
1AB
330
1F
100
AcDbEntity
  8
0
  6
Continuous
 62
     1
370
    25
100
AcDbPolyline
 90
       15
 70
   128
 43
0.0
 10
838.7001771375
 20
-378.9646589932
 10
838.575790608
 20
-371.8134890001
 10
838.2028277004
 20
-364.8172401067
 10
837.5818781455
 20
-357.9869748204
 10
836.7139237922
 20
-351.3334931948
 10
835.6003370549
 20
-344.8673157517
 10
834.242878743
 20
-338.5986668468
 10
832.6436952771
 20
-332.5374585025
 10
830.8053152951
 20
-326.6932747351
 10
828.7306456535
 20
-321.0753564004
 10
826.4229668314
 20
-315.692586582
 10
823.8859277434
 20
-310.5534765453
 10
821.1235399699
 20
-305.6661522797
 10
818.1401714136
 20
-301.0383416493
 10
817.5886618543
 20
-300.2456938035
  0
LWPOLYLINE
  5
1AC
330
1F
100
AcDbEntity
  8
0
  6
Continuous
 62
     1
370
    25
100
AcDbPolyline
 90
       54
 70
   128
 43
0.0
 10
603.4732993476
 20
-672.6080557213
 10
606.3427540362
 20
-672.7942474584
 10
611.9000092655
 20
-672.9042618691
 10
617.567109119
 20
-672.6931109797
 10
623.335092747
 20
-672.1611286632
 10
629.1948397819
 20
-671.3091560929
 10
635.1370847591
 20
-670.1385404127
 10
641.1524317678
 20
-668.6511326065
 10
647.2313693081
 20
-666.8492845718
 10
653.3642853303
 20
-664.7358454007
 10
659.5414824334
 20
-662.3141568749
 10
665.7531931992
 20
-659.5880481819
 10
671.9895956362
 20
-656.5618298596
 10
678.2408287102
 20
-653.2402869814
 10
684.4970079368
 20
-649.6286715893
 10
690.7482410108
 20
-645.7326943895
 10
696.9846434478
 20
-641.5585157227
 10
703.1963542135
 20
-637.1127358236
 10
709.3735513167
 20
-632.4023843838
 10
715.5064673388
 20
-627.4349094373
 10
721.5854048791
 20
-622.2181655828
 10
727.6007518879
 20
-616.7604015649
 10
733.5429968651
 20
-611.07024723
 10
739.4027438999
 20
-605.156699882
 10
745.1707275279
 20
-599.0291100546
 10
750.8378273814
 20
-592.6971667268
 10
756.3950826107
 20
-586.1708820025
 10
761.833706053
 20
-579.4605752794
 10
767.1450981266
 20
-572.5768569317
 10
772.3208604292
 20
-565.5306115329
 10
777.3528090165
 20
-558.3329806453
 10
782.2329873435
 20
-550.9953452029
 10
786.9536788453
 20
-543.5293075155
 10
791.5074191383
 20
-535.9466729233
 10
795.887007823
 20
-528.2594311301
 10
800.0855198695
 20
-520.4797372453
 10
804.0963165673
 20
-512.6198925641
 10
807.9130560225
 20
-504.6923251163
 10
811.5297031854
 20
-496.7095700157
 10
814.9405393935
 20
-488.6842496388
 10
818.1401714136
 20
-480.6290536667
 10
821.1235399699
 20
-472.55671902
 10
823.8859277434
 20
-464.480009719
 10
826.4229668314
 20
-456.4116967012
 10
828.7306456535
 20
-448.364537628
 10
830.8053152951
 20
-440.3512567117
 10
832.6436952772
 20
-432.3845245968
 10
834.242878743
 20
-424.4769383241
 10
835.6003370549
 20
-416.641001413
 10
836.7139237922
 20
-408.8891040903
 10
837.5818781455
 20
-401.233503699
 10
838.2028277004
 20
-393.6863053171
 10
838.575790608
 20
-386.2594426163
 10
838.7001771375
 20
-378.9646589932
  0
LWPOLYLINE
  5
1AD
330
1F
100
AcDbEntity
  8
0
  6
Continuous
 62
     1
370
    25
100
AcDbPolyline
 90
       61
 70
   128
 43
0.0
 10
720.9009796846
 20
-302.9859298816
 10
718.4920243358
 20
-302.7267693318
 10
713.7197545719
 20
-302.4651882241
 10
708.8335339825
 20
-302.5233393801
 10
703.8434900062
 20
-302.9011022725
 10
698.7599652709
 20
-303.5976939301
 10
693.593496158
 20
-304.6116705603
 10
688.3547909637
 20
-305.9409305417
 10
683.0547077045
 20
-307.5827187799
 10
677.7042316122
 20
-309.5336324182
 10
672.3144523657
 20
-311.7896278902
 10
666.8965411055
 20
-314.3460293006
 10
661.4617272801
 20
-317.1975381172
 10
656.0212753709
 20
-320.3382441525
 10
650.5864615455
 20
-323.7616378138
 10
645.1685502853
 20
-327.4606235947
 10
639.7787710388
 20
-331.4275347825
 10
634.4282949466
 20
-335.6541493479
 10
629.1282116873
 20
-340.1317069868
 10
623.889506493
 20
-344.8509272772
 10
618.7230373801
 20
-349.8020289145
 10
613.6395126448
 20
-354.9747499844
 10
608.6494686685
 20
-360.3583692327
 10
603.7632480792
 20
-365.9417282862
 10
598.9909783152
 20
-371.7132547808
 10
594.3425506346
 20
-377.6609863464
 10
589.8275996133
 20
-383.7725954011
 10
585.455483177
 20
-390.0354147019
 10
581.2352632045
 20
-396.4364635994
 10
577.1756867463
 20
-402.9624749422
 10
573.2851678944
 20
-409.5999225753
 10
569.5717703433
 20
-416.3350493749
 10
566.0431906764
 20
-423.1538957622
 10
562.706742414
 20
-430.0423286368
 10
559.5693408546
 20
-436.9860706697
 10
556.637488742
 20
-443.970729895
 10
553.9172627874
 20
-450.98182954
 10
551.4143010745
 20
-458.0048380301
 10
549.1337913738
 20
-465.0251991076
 10
547.0804603897
 20
-472.0283620022
 10
545.2585639643
 20
-478.9998115893
 10
543.6718782562
 20
-485.9250984751
 10
542.3236919138
 20
-492.789868945
 10
541.2167992591
 20
-499.5798947139
 10
540.3534944963
 20
-506.2811024165
 10
539.7355669563
 20
-512.8796027765
 10
539.3642973882
 20
-519.3617193943
 10
539.240455305
 20
-525.7140170933
 10
539.3642973882
 20
-531.9233297666
 10
539.7355669563
 20
-537.9767876654
 10
540.3534944963
 20
-543.8618440737
 10
541.2167992591
 20
-549.5663013136
 10
542.3236919138
 20
-555.0783360262
 10
543.6718782562
 20
-560.386523678
 10
545.2585639643
 20
-565.4798622393
 10
547.0804603897
 20
-570.3477949883
 10
549.1337913738
 20
-574.980232391
 10
551.4143010745
 20
-579.3675730134
 10
553.9172627874
 20
-583.5007234221
 10
556.637488742
 20
-587.3711170318
 10
557.3941036641
 20
-588.3517553517
  0
LWPOLYLINE
  5
1AE
330
1F
100
AcDbEntity
  8
0
  6
Continuous
 62
     1
370
    25
100
AcDbPolyline
 90
       61
 70
   128
 43
0.0
 10
580.1480678898
 20
-601.5746118355
 10
579.2649057399
 20
-600.433646821
 10
576.5446797854
 20
-596.5632532113
 10
574.0417180725
 20
-592.4301028026
 10
571.7612083717
 20
-588.0427621802
 10
569.7078773876
 20
-583.4103247775
 10
567.8859809623
 20
-578.5423920285
 10
566.2992952542
 20
-573.4490534671
 10
564.9511089118
 20
-568.1408658154
 10
563.8442162571
 20
-562.6288311027
 10
562.9809114943
 20
-556.9243738629
 10
562.3629839543
 20
-551.0393174545
 10
561.9917143862
 20
-544.9858595558
 10
561.8678723029
 20
-538.7765468825
 10
561.9917143862
 20
-532.4242491835
 10
562.3629839543
 20
-525.9421325657
 10
562.9809114943
 20
-519.3436322056
 10
563.8442162571
 20
-512.6424245031
 10
564.9511089118
 20
-505.8523987342
 10
566.2992952542
 20
-498.9876282643
 10
567.8859809623
 20
-492.0623413785
 10
569.7078773876
 20
-485.0908917913
 10
571.7612083717
 20
-478.0877288968
 10
574.0417180725
 20
-471.0673678192
 10
576.5446797854
 20
-464.0443593292
 10
579.2649057399
 20
-457.0332596842
 10
582.1967578525
 20
-450.0486004588
 10
585.334159412
 20
-443.104858426
 10
588.6706076744
 20
-436.2164255514
 10
592.1991873412
 20
-429.3975791641
 10
595.9125848923
 20
-422.6624523645
 10
599.8031037442
 20
-416.0250047314
 10
603.8626802025
 20
-409.4989933885
 10
608.082900175
 20
-403.0979444911
 10
612.4550166113
 20
-396.8351251903
 10
616.9699676325
 20
-390.7235161356
 10
621.6183953132
 20
-384.7757845699
 10
626.3906650771
 20
-379.0042580754
 10
631.2768856664
 20
-373.4208990218
 10
636.2669296428
 20
-368.0372797736
 10
641.3504543781
 20
-362.8645587037
 10
646.516923491
 20
-357.9134570664
 10
651.7556286853
 20
-353.1942367759
 10
657.0557119445
 20
-348.716679137
 10
662.4061880368
 20
-344.4900645716
 10
667.7959672832
 20
-340.5231533838
 10
673.2138785434
 20
-336.8241676029
 10
678.6486923689
 20
-333.4007739417
 10
684.0891442781
 20
-330.2600679064
 10
689.5239581035
 20
-327.4085590897
 10
694.9418693637
 20
-324.8521576793
 10
700.3316486102
 20
-322.5961622074
 10
705.6821247024
 20
-320.6452485691
 10
710.9822079617
 20
-319.0034603308
 10
716.220913156
 20
-317.6742003494
 10
721.3873822689
 20
-316.6602237193
 10
726.4709070041
 20
-315.9636320617
 10
731.4609509805
 20
-315.5858691692
 10
736.3471715698
 20
-315.5277180133
 10
741.1194413337
 20
-315.7892991209
 10
743.4102222628
 20
-316.033677511
  0
LWPOLYLINE
  5
1AF
330
1F
100
AcDbEntity
  8
0
  6
Continuous
 62
     1
370
    25
100
AcDbPolyline
 90
       19
 70
   128
 43
0.0
 10
786.7155414942
 20
-458.1520588773
 10
786.0656010005
 20
-457.8566041902
 10
784.9018216555
 20
-457.6413460578
 10
783.6195765991
 20
-457.748693409
 10
782.2600782424
 20
-458.1751960114
 10
780.8670219811
 20
-458.9071457206
 10
779.4851817897
 20
-459.9210170706
 10
778.158971149
 20
-461.184223402
 10
776.9310155601
 20
-462.656164224
 10
775.8407825261
 20
-464.2895301475
 10
774.9233130337
 20
-466.0318234476
 10
774.2080953072
 20
-467.8270453843
 10
773.7181170329
 20
-469.6174960473
 10
773.4691265158
 20
-471.3456288791
 10
773.4691265158
 20
-472.9559002686
 10
773.7181170329
 20
-474.3965547684
 10
774.2080953072
 20
-475.6212885576
 10
774.9233130337
 20
-476.5907376843
 10
775.7723546361
 20
-477.2367655227
  0
LWPOLYLINE
  5
1B0
330
1F
100
AcDbEntity
  8
0
  6
Continuous
 62
     1
370
    25
100
AcDbPolyline
 90
       19
 70
   128
 43
0.0
 10
734.9517324736
 20
-547.809605831
 10
734.30179198
 20
-547.5141511439
 10
733.138012635
 20
-547.2988930115
 10
731.8557675786
 20
-547.4062403626
 10
730.4962692219
 20
-547.8327429651
 10
729.1032129606
 20
-548.5646926742
 10
727.7213727692
 20
-549.5785640242
 10
726.3951621285
 20
-550.8417703557
 10
725.1672065396
 20
-552.3137111777
 10
724.0769735056
 20
-553.9470771011
 10
723.1595040131
 20
-555.6893704013
 10
722.4442862867
 20
-557.484592338
 10
721.9543080124
 20
-559.2750430009
 10
721.7053174953
 20
-561.0031758327
 10
721.7053174953
 20
-562.6134472223
 10
721.9543080124
 20
-564.0541017221
 10
722.4442862867
 20
-565.2788355112
 10
723.1595040131
 20
-566.248284638
 10
724.0085456156
 20
-566.8943124764
  0
LWPOLYLINE
  5
1B1
330
1F
100
AcDbEntity
  8
0
  6
Continuous
 62
     1
370
    25
100
AcDbPolyline
 90
       19
 70
   128
 43
0.0
 10
805.6624105923
 20
-365.5601829759
 10
805.0124700987
 20
-365.2647282888
 10
803.8486907537
 20
-365.0494701564
 10
802.5664456973
 20
-365.1568175075
 10
801.2069473405
 20
-365.5833201099
 10
799.8138910793
 20
-366.3152698191
 10
798.4320508879
 20
-367.3291411691
 10
797.1058402472
 20
-368.5923475006
 10
795.8778846583
 20
-370.0642883226
 10
794.7876516243
 20
-371.697654246
 10
793.8701821318
 20
-373.4399475462
 10
793.1549644054
 20
-375.2351694828
 10
792.6649861311
 20
-377.0256201458
 10
792.4159956139
 20
-378.7537529776
 10
792.4159956139
 20
-380.3640243671
 10
792.6649861311
 20
-381.804678867
 10
793.1549644054
 20
-383.0294126561
 10
793.8701821318
 20
-383.9988617829
 10
794.7192237342
 20
-384.6448896213
  0
LWPOLYLINE
  5
1B2
330
1F
100
AcDbEntity
  8
0
  6
Continuous
 62
     1
370
    25
100
AcDbPolyline
 90
       19
 70
   128
 43
0.0
 10
664.241054355
 20
-610.5091565353
 10
663.5911138613
 20
-610.2137018482
 10
662.4273345164
 20
-609.9984437158
 10
661.14508946
 20
-610.105791067
 10
659.7855911032
 20
-610.5322936694
 10
658.3925348419
 20
-611.2642433786
 10
657.0106946506
 20
-612.2781147286
 10
655.6844840098
 20
-613.54132106
 10
654.456528421
 20
-615.013261882
 10
653.3662953869
 20
-616.6466278055
 10
652.4488258945
 20
-618.3889211056
 10
651.733608168
 20
-620.1841430423
 10
651.2436298938
 20
-621.9745937053
 10
650.9946393766
 20
-623.7027265371
 10
650.9946393766
 20
-625.3129979266
 10
651.2436298938
 20
-626.7536524264
 10
651.733608168
 20
-627.9783862155
 10
652.4488258945
 20
-628.9478353423
 10
653.2978674969
 20
-629.5938631807
  0
LWPOLYLINE
  5
1B3
330
1F
100
AcDbEntity
  8
0
  6
Continuous
 62
     1
370
    25
100
AcDbPolyline
 90
       19
 70
   128
 43
0.0
 10
786.7155414942
 20
-294.8438965002
 10
786.0656010005
 20
-294.548441813
 10
784.9018216556
 20
-294.3331836807
 10
783.6195765991
 20
-294.4405310318
 10
782.2600782424
 20
-294.8670336342
 10
780.8670219811
 20
-295.5989833434
 10
779.4851817897
 20
-296.6128546934
 10
778.158971149
 20
-297.8760610248
 10
776.9310155601
 20
-299.3480018469
 10
775.8407825261
 20
-300.9813677703
 10
774.9233130337
 20
-302.7236610705
 10
774.2080953072
 20
-304.5188830071
 10
773.718117033
 20
-306.3093336701
 10
773.4691265158
 20
-308.0374665019
 10
773.4691265158
 20
-309.6477378914
 10
773.718117033
 20
-311.0883923912
 10
774.2080953072
 20
-312.3131261804
 10
774.9233130337
 20
-313.2825753071
 10
775.7723546361
 20
-313.9286031455
  0
LWPOLYLINE
  5
1B4
330
1F
100
AcDbEntity
  8
0
  6
Continuous
 62
     1
370
    25
100
AcDbPolyline
 90
       19
 70
   128
 43
0.0
 10
593.5303762363
 20
-629.4504170133
 10
592.8804357427
 20
-629.1549623262
 10
591.7166563977
 20
-628.9397041938
 10
590.4344113413
 20
-629.0470515449
 10
589.0749129845
 20
-629.4735541473
 10
587.6818567233
 20
-630.2055038565
 10
586.3000165319
 20
-631.2193752065
 10
584.9738058912
 20
-632.482581538
 10
583.7458503023
 20
-633.95452236
 10
582.6556172683
 20
-635.5878882834
 10
581.7381477758
 20
-637.3301815836
 10
581.0229300494
 20
-639.1254035202
 10
580.5329517751
 20
-640.9158541832
 10
580.2839612579
 20
-642.643987015
 10
580.2839612579
 20
-644.2542584045
 10
580.5329517751
 20
-645.6949129044
 10
581.0229300494
 20
-646.9196466935
 10
581.7381477758
 20
-647.8890958202
 10
582.5871893783
 20
-648.5351236586
  0
LWPOLYLINE
  5
1B5
330
1F
100
AcDbEntity
  8
0
  6
Continuous
 62
     1
370
    25
100
AcDbPolyline
 90
       19
 70
   128
 43
0.0
 10
734.9517324737
 20
-264.951571303
 10
734.30179198
 20
-264.6561166159
 10
733.1380126351
 20
-264.4408584835
 10
731.8557675786
 20
-264.5482058347
 10
730.4962692219
 20
-264.9747084371
 10
729.1032129606
 20
-265.7066581463
 10
727.7213727692
 20
-266.7205294963
 10
726.3951621285
 20
-267.9837358277
 10
725.1672065396
 20
-269.4556766497
 10
724.0769735056
 20
-271.0890425732
 10
723.1595040132
 20
-272.8313358733
 10
722.4442862867
 20
-274.62655781
 10
721.9543080125
 20
-276.417008473
 10
721.7053174953
 20
-278.1451413048
 10
721.7053174953
 20
-279.7554126943
 10
721.9543080125
 20
-281.1960671941
 10
722.4442862867
 20
-282.4208009833
 10
723.1595040132
 20
-283.39025011
 10
724.0085456156
 20
-284.0362779484
  0
LWPOLYLINE
  5
1B6
330
1F
100
AcDbEntity
  8
0
  6
Continuous
 62
     1
370
    25
100
AcDbPolyline
 90
       19
 70
   128
 43
0.0
 10
541.7665672158
 20
-599.5580918161
 10
541.1166267222
 20
-599.262637129
 10
539.9528473772
 20
-599.0473789967
 10
538.6706023208
 20
-599.1547263478
 10
537.311103964
 20
-599.5812289502
 10
535.9180477028
 20
-600.3131786594
 10
534.5362075114
 20
-601.3270500094
 10
533.2099968707
 20
-602.5902563408
 10
531.9820412818
 20
-604.0621971628
 10
530.8918082478
 20
-605.6955630863
 10
529.9743387553
 20
-607.4378563865
 10
529.2591210289
 20
-609.2330783231
 10
528.7691427546
 20
-611.0235289861
 10
528.5201522374
 20
-612.7516618179
 10
528.5201522374
 20
-614.3619332074
 10
528.7691427546
 20
-615.8025877072
 10
529.2591210289
 20
-617.0273214964
 10
529.9743387553
 20
-617.9967706231
 10
530.8233803578
 20
-618.6427984615
  0
LWPOLYLINE
  5
1B7
330
1F
100
AcDbEntity
  8
0
  6
Continuous
 62
     1
370
    25
100
AcDbPolyline
 90
       19
 70
   128
 43
0.0
 10
664.241054355
 20
-283.892831781
 10
663.5911138614
 20
-283.5973770939
 10
662.4273345164
 20
-283.3821189615
 10
661.14508946
 20
-283.4894663126
 10
659.7855911032
 20
-283.915968915
 10
658.392534842
 20
-284.6479186242
 10
657.0106946506
 20
-285.6617899742
 10
655.6844840099
 20
-286.9249963057
 10
654.456528421
 20
-288.3969371277
 10
653.3662953869
 20
-290.0303030511
 10
652.4488258945
 20
-291.7725963513
 10
651.7336081681
 20
-293.5678182879
 10
651.2436298938
 20
-295.3582689509
 10
650.9946393766
 20
-297.0864017827
 10
650.9946393766
 20
-298.6966731722
 10
651.2436298938
 20
-300.1373276721
 10
651.7336081681
 20
-301.3620614612
 10
652.4488258945
 20
-302.331510588
 10
653.2978674969
 20
-302.9775384264
  0
LWPOLYLINE
  5
1B8
330
1F
100
AcDbEntity
  8
0
  6
Continuous
 62
     1
370
    25
100
AcDbPolyline
 90
       19
 70
   128
 43
0.0
 10
522.8196981177
 20
-528.8418053404
 10
522.169757624
 20
-528.5463506533
 10
521.0059782791
 20
-528.3310925209
 10
519.7237332226
 20
-528.438439872
 10
518.3642348659
 20
-528.8649424745
 10
516.9711786046
 20
-529.5968921836
 10
515.5893384133
 20
-530.6107635337
 10
514.2631277725
 20
-531.8739698651
 10
513.0351721837
 20
-533.3459106871
 10
511.9449391496
 20
-534.9792766106
 10
511.0274696572
 20
-536.7215699107
 10
510.3122519307
 20
-538.5167918474
 10
509.8222736565
 20
-540.3072425104
 10
509.5732831393
 20
-542.0353753422
 10
509.5732831393
 20
-543.6456467317
 10
509.8222736565
 20
-545.0863012315
 10
510.3122519307
 20
-546.3110350206
 10
511.0274696572
 20
-547.2804841474
 10
511.8765112596
 20
-547.9265119858
  0
LWPOLYLINE
  5
1B9
330
1F
100
AcDbEntity
  8
0
  6
Continuous
 62
     1
370
    25
100
AcDbPolyline
 90
       19
 70
   128
 43
0.0
 10
593.5303762363
 20
-346.5923824853
 10
592.8804357427
 20
-346.2969277982
 10
591.7166563977
 20
-346.0816696658
 10
590.4344113413
 20
-346.1890170169
 10
589.0749129846
 20
-346.6155196194
 10
587.6818567233
 20
-347.3474693285
 10
586.3000165319
 20
-348.3613406785
 10
584.9738058912
 20
-349.62454701
 10
583.7458503023
 20
-351.096487832
 10
582.6556172683
 20
-352.7298537554
 10
581.7381477758
 20
-354.4721470556
 10
581.0229300494
 20
-356.2673689923
 10
580.5329517751
 20
-358.0578196552
 10
580.283961258
 20
-359.785952487
 10
580.283961258
 20
-361.3962238766
 10
580.5329517751
 20
-362.8368783764
 10
581.0229300494
 20
-364.0616121655
 10
581.7381477758
 20
-365.0310612923
 10
582.5871893783
 20
-365.6770891307
  0
LWPOLYLINE
  5
1BA
330
1F
100
AcDbEntity
  8
0
  6
Continuous
 62
     1
370
    25
100
AcDbPolyline
 90
       19
 70
   128
 43
0.0
 10
541.7665672158
 20
-436.249929439
 10
541.1166267222
 20
-435.9544747519
 10
539.9528473772
 20
-435.7392166195
 10
538.6706023208
 20
-435.8465639706
 10
537.3111039641
 20
-436.273066573
 10
535.9180477028
 20
-437.0050162822
 10
534.5362075114
 20
-438.0188876322
 10
533.2099968707
 20
-439.2820939637
 10
531.9820412818
 20
-440.7540347857
 10
530.8918082478
 20
-442.3874007091
 10
529.9743387553
 20
-444.1296940093
 10
529.2591210289
 20
-445.9249159459
 10
528.7691427546
 20
-447.7153666089
 10
528.5201522374
 20
-449.4434994407
 10
528.5201522374
 20
-451.0537708302
 10
528.7691427546
 20
-452.4944253301
 10
529.2591210289
 20
-453.7191591192
 10
529.9743387553
 20
-454.688608246
 10
530.8233803578
 20
-455.3346360844
  0
ENDSEC
  0
SECTION
  2
OBJECTS
  0
DICTIONARY
  5
C
330
0
100
AcDbDictionary
281
     1
  3
ACAD_GROUP
350
D
  3
ACAD_LAYOUT
350
1A
  3
ACAD_MLINESTYLE
350
17
  3
ACAD_PLOTSETTINGS
350
19
  3
ACAD_PLOTSTYLENAME
350
E
  3
ACAD_SCALELIST
350
47
  3
DWGPROPS
350
1BB
  0
DICTIONARY
  5
D
102
{ACAD_REACTORS
330
C
102
}
330
C
100
AcDbDictionary
281
     1
  0
DICTIONARY
  5
1A
102
{ACAD_REACTORS
330
C
102
}
330
C
100
AcDbDictionary
281
     1
  3
Layout1
350
1E
  3
Layout2
350
26
  3
Model
350
22
  0
DICTIONARY
  5
17
102
{ACAD_REACTORS
330
C
102
}
330
C
100
AcDbDictionary
281
     1
  3
Standard
350
18
  0
DICTIONARY
  5
19
102
{ACAD_REACTORS
330
C
102
}
330
C
100
AcDbDictionary
281
     1
  0
ACDBDICTIONARYWDFLT
  5
E
102
{ACAD_REACTORS
330
C
102
}
330
C
100
AcDbDictionary
281
     1
  3
Normal
350
F
100
AcDbDictionaryWithDefault
340
F
  0
DICTIONARY
  5
47
102
{ACAD_REACTORS
330
C
102
}
330
C
100
AcDbDictionary
281
     1
  3
A0
350
48
  3
A1
350
49
  3
A2
350
4A
  3
A3
350
4B
  3
A4
350
4C
  3
A5
350
4D
  3
A6
350
4E
  3
A7
350
4F
  3
A8
350
50
  3
A9
350
51
  3
B0
350
52
  3
B1
350
53
  3
B2
350
54
  3
B3
350
55
  3
B4
350
56
  3
B5
350
57
  3
B6
350
58
  3
B7
350
59
  3
B8
350
5A
  3
B9
350
5B
  3
C0
350
5C
  3
C1
350
5D
  3
C2
350
5E
  3
C3
350
5F
  3
C4
350
60
  3
C5
350
61
  3
C6
350
62
  3
C7
350
63
  3
C8
350
64
  3
C9
350
65
  3
D0
350
66
  3
D1
350
67
  3
D2
350
68
  0
XRECORD
  5
1BB
102
{ACAD_REACTORS
330
C
102
}
330
C
100
AcDbXrecord
280
     1
  1
DWGPROPS COOKIE
  2

  3

  4

  6

  7

  8
b.kav
  9

300
=
301
=
302
=
303
=
304
=
305
=
306
=
307
=
308
=
309
=
 40
0.0
 41
2459741.46604412
 42
2459741.466046447
  1

 90
        0
  0
LAYOUT
  5
1E
102
{ACAD_REACTORS
330
1A
102
}
330
1A
100
AcDbPlotSettings
  1

  2
none_device
  4

  6

 40
0.0
 41
0.0
 42
0.0
 43
0.0
 44
0.0
 45
0.0
 46
0.0
 47
0.0
 48
0.0
 49
0.0
140
0.0
141
0.0
142
1.0
143
1.0
 70
   688
 72
     1
 73
     0
 74
     5
  7

 75
    16
147
1.0
148
0.0
149
0.0
100
AcDbLayout
  1
Layout1
 70
     1
 71
     1
 10
0.0
 20
0.0
 11
420.0
 21
297.0
 12
0.0
 22
0.0
 32
0.0
 14
1.0000000000E+20
 24
1.0000000000E+20
 34
1.0000000000E+20
 15
-1.0000000000E+20
 25
-1.0000000000E+20
 35
-1.0000000000E+20
146
0.0
 13
0.0
 23
0.0
 33
0.0
 16
1.0
 26
0.0
 36
0.0
 17
0.0
 27
1.0
 37
0.0
 76
     0
330
1B
  0
LAYOUT
  5
26
102
{ACAD_REACTORS
330
1A
102
}
330
1A
100
AcDbPlotSettings
  1

  2
none_device
  4

  6

 40
0.0
 41
0.0
 42
0.0
 43
0.0
 44
0.0
 45
0.0
 46
0.0
 47
0.0
 48
0.0
 49
0.0
140
0.0
141
0.0
142
1.0
143
1.0
 70
   688
 72
     1
 73
     0
 74
     5
  7

 75
    16
147
1.0
148
0.0
149
0.0
100
AcDbLayout
  1
Layout2
 70
     1
 71
     2
 10
0.0
 20
0.0
 11
0.0
 21
0.0
 12
0.0
 22
0.0
 32
0.0
 14
0.0
 24
0.0
 34
0.0
 15
0.0
 25
0.0
 35
0.0
146
0.0
 13
0.0
 23
0.0
 33
0.0
 16
1.0
 26
0.0
 36
0.0
 17
0.0
 27
1.0
 37
0.0
 76
     0
330
23
  0
LAYOUT
  5
22
102
{ACAD_REACTORS
330
1A
102
}
330
1A
100
AcDbPlotSettings
  1

  2
none_device
  4
Letter_(8.50_x_11.00_Inches)
  6

 40
6.35
 41
6.35
 42
6.35000508
 43
6.35000508
 44
215.9
 45
279.4
 46
0.0
 47
0.0
 48
0.0
 49
0.0
140
0.0
141
0.0
142
1.0
143
1.0
 70
  1712
 72
     1
 73
     0
 74
     0
  7

 75
     0
147
1.0
148
0.0
149
0.0
100
AcDbLayout
  1
Model
 70
     1
 71
     0
 10
0.0
 20
0.0
 11
279.4
 21
215.9
 12
0.0
 22
0.0
 32
0.0
 14
0.0
 24
0.0
 34
0.0
 15
279.4
 25
215.9
 35
0.0
146
0.0
 13
0.0
 23
0.0
 33
0.0
 16
1.0
 26
0.0
 36
0.0
 17
0.0
 27
1.0
 37
0.0
 76
     0
330
1F
331
29
  0
MLINESTYLE
  5
18
102
{ACAD_REACTORS
330
17
102
}
330
17
100
AcDbMlineStyle
  2
Standard
 70
     0
  3

 62
   256
 51
90.0
 52
90.0
 71
     2
 49
0.5
 62
   256
  6
BYLAYER
 49
-0.5
 62
   256
  6
BYLAYER
  0
ACDBPLACEHOLDER
  5
F
102
{ACAD_REACTORS
330
E
102
}
330
E
  0
SCALE
  5
48
102
{ACAD_REACTORS
330
47
102
}
330
47
100
AcDbScale
 70
     0
300
1:1
140
1.0
141
1.0
290
     1
  0
SCALE
  5
49
102
{ACAD_REACTORS
330
47
102
}
330
47
100
AcDbScale
 70
     0
300
1:2
140
1.0
141
2.0
290
     0
  0
SCALE
  5
4A
102
{ACAD_REACTORS
330
47
102
}
330
47
100
AcDbScale
 70
     0
300
1:4
140
1.0
141
4.0
290
     0
  0
SCALE
  5
4B
102
{ACAD_REACTORS
330
47
102
}
330
47
100
AcDbScale
 70
     0
300
1:5
140
1.0
141
5.0
290
     0
  0
SCALE
  5
4C
102
{ACAD_REACTORS
330
47
102
}
330
47
100
AcDbScale
 70
     0
300
1:8
140
1.0
141
8.0
290
     0
  0
SCALE
  5
4D
102
{ACAD_REACTORS
330
47
102
}
330
47
100
AcDbScale
 70
     0
300
1:10
140
1.0
141
10.0
290
     0
  0
SCALE
  5
4E
102
{ACAD_REACTORS
330
47
102
}
330
47
100
AcDbScale
 70
     0
300
1:16
140
1.0
141
16.0
290
     0
  0
SCALE
  5
4F
102
{ACAD_REACTORS
330
47
102
}
330
47
100
AcDbScale
 70
     0
300
1:20
140
1.0
141
20.0
290
     0
  0
SCALE
  5
50
102
{ACAD_REACTORS
330
47
102
}
330
47
100
AcDbScale
 70
     0
300
1:30
140
1.0
141
30.0
290
     0
  0
SCALE
  5
51
102
{ACAD_REACTORS
330
47
102
}
330
47
100
AcDbScale
 70
     0
300
1:40
140
1.0
141
40.0
290
     0
  0
SCALE
  5
52
102
{ACAD_REACTORS
330
47
102
}
330
47
100
AcDbScale
 70
     0
300
1:50
140
1.0
141
50.0
290
     0
  0
SCALE
  5
53
102
{ACAD_REACTORS
330
47
102
}
330
47
100
AcDbScale
 70
     0
300
1:100
140
1.0
141
100.0
290
     0
  0
SCALE
  5
54
102
{ACAD_REACTORS
330
47
102
}
330
47
100
AcDbScale
 70
     0
300
2:1
140
2.0
141
1.0
290
     0
  0
SCALE
  5
55
102
{ACAD_REACTORS
330
47
102
}
330
47
100
AcDbScale
 70
     0
300
4:1
140
4.0
141
1.0
290
     0
  0
SCALE
  5
56
102
{ACAD_REACTORS
330
47
102
}
330
47
100
AcDbScale
 70
     0
300
8:1
140
8.0
141
1.0
290
     0
  0
SCALE
  5
57
102
{ACAD_REACTORS
330
47
102
}
330
47
100
AcDbScale
 70
     0
300
10:1
140
10.0
141
1.0
290
     0
  0
SCALE
  5
58
102
{ACAD_REACTORS
330
47
102
}
330
47
100
AcDbScale
 70
     0
300
100:1
140
100.0
141
1.0
290
     0
  0
SCALE
  5
59
102
{ACAD_REACTORS
330
47
102
}
330
47
100
AcDbScale
 70
     0
300
1/128" = 1'-0"
140
0.0078125
141
12.0
290
     0
  0
SCALE
  5
5A
102
{ACAD_REACTORS
330
47
102
}
330
47
100
AcDbScale
 70
     0
300
1/64" = 1'-0"
140
0.015625
141
12.0
290
     0
  0
SCALE
  5
5B
102
{ACAD_REACTORS
330
47
102
}
330
47
100
AcDbScale
 70
     0
300
1/32" = 1'-0"
140
0.03125
141
12.0
290
     0
  0
SCALE
  5
5C
102
{ACAD_REACTORS
330
47
102
}
330
47
100
AcDbScale
 70
     0
300
1/16" = 1'-0"
140
0.0625
141
12.0
290
     0
  0
SCALE
  5
5D
102
{ACAD_REACTORS
330
47
102
}
330
47
100
AcDbScale
 70
     0
300
3/32" = 1'-0"
140
0.09375
141
12.0
290
     0
  0
SCALE
  5
5E
102
{ACAD_REACTORS
330
47
102
}
330
47
100
AcDbScale
 70
     0
300
1/8" = 1'-0"
140
0.125
141
12.0
290
     0
  0
SCALE
  5
5F
102
{ACAD_REACTORS
330
47
102
}
330
47
100
AcDbScale
 70
     0
300
3/16" = 1'-0"
140
0.1875
141
12.0
290
     0
  0
SCALE
  5
60
102
{ACAD_REACTORS
330
47
102
}
330
47
100
AcDbScale
 70
     0
300
1/4" = 1'-0"
140
0.25
141
12.0
290
     0
  0
SCALE
  5
61
102
{ACAD_REACTORS
330
47
102
}
330
47
100
AcDbScale
 70
     0
300
3/8" = 1'-0"
140
0.375
141
12.0
290
     0
  0
SCALE
  5
62
102
{ACAD_REACTORS
330
47
102
}
330
47
100
AcDbScale
 70
     0
300
1/2" = 1'-0"
140
0.5
141
12.0
290
     0
  0
SCALE
  5
63
102
{ACAD_REACTORS
330
47
102
}
330
47
100
AcDbScale
 70
     0
300
3/4" = 1'-0"
140
0.75
141
12.0
290
     0
  0
SCALE
  5
64
102
{ACAD_REACTORS
330
47
102
}
330
47
100
AcDbScale
 70
     0
300
1" = 1'-0"
140
1.0
141
12.0
290
     0
  0
SCALE
  5
65
102
{ACAD_REACTORS
330
47
102
}
330
47
100
AcDbScale
 70
     0
300
1-1/2" = 1'-0"
140
1.5
141
12.0
290
     0
  0
SCALE
  5
66
102
{ACAD_REACTORS
330
47
102
}
330
47
100
AcDbScale
 70
     0
300
3" = 1'-0"
140
3.0
141
12.0
290
     0
  0
SCALE
  5
67
102
{ACAD_REACTORS
330
47
102
}
330
47
100
AcDbScale
 70
     0
300
6" = 1'-0"
140
6.0
141
12.0
290
     0
  0
SCALE
  5
68
102
{ACAD_REACTORS
330
47
102
}
330
47
100
AcDbScale
 70
     0
300
1'-0" = 1'-0"
140
12.0
141
12.0
290
     0
  0
ENDSEC
  0
EOF
